MUZBANK



A Most Complete Bank Of Music Information

МУЗЫКАЛЬНО-ИНФОРМАЦИОННЫЙ БАНК






    Варианты аккомпанемента

    19 January 2013

    Аккомпанемент (фр. accompagnement — сопровождать) — музыкальное гармоническое и ритмическое сопровождение сольной вокальной или инструментальной партии, основной темы или мелодии музыкального произведения. С аккомпанементом в музыке приходится встречаться очень часто. Но не всякое сочетание инструмента с другим инструментом оказывается сопровождением. Иногда аккомпанирующий инструмент выступает в качестве полноправного партнера. То есть бывает гармонический, состоящий из аккордов, и контрапунктический, в котором несколько партий сохраняют полную самостоятельность наравне с сопровождаемой мелодией. 

    Чтобы написать аккомпанемент для песни необходимо выбрать тональность, и настроение композиции  один из двух ладов, минор или мажор. Если не получается гармонизировать в мажоре – переходим в минор. Выискиваем ноты тональности, для часто используемой на гитаре Ля-минор это Ля, Си, До, Ре, Ми, Фа, Соль. Устойчивыми ступенями являются I, IV и V, это значит, что при гармонизации мы, главным образом, используем аккорды образованные от 1-й, 4-й и 5-й нот в этой тональности и параллельной ей – До-мажор; (см. таблицу тональностей – параллельные расположены друг под другом), то есть аккорды:

    Am  Dm  E7  соответственно →  C    F   G7

    Для минора на 1-й и 4-й ступени минорные аккорды, на 5-й – доминантсептаккорд, для мажора на 1-й и 4-й ступени мажорные аккорды, на 5-й тоже доминантсептаккорд  При гармонизации  вообще говоря, могут использоваться все известные аккорды, но основными являются эти шесть. Если, скажем, нужная нам тональность Фа-мажор, то основные аккорды будут такими:

    F  H  C7  соответственно →  Dm  Gm  A7

    Например, если композиция написана в тональности Ми-минор: До, Ре, Ми, Фа, Соль, Ля, Си , то ноты параллельной тональности Соль-мажор: Ми, Фа#, Соль, Ля, Си, До, Ре

    Рассмотрим варианты аккомпанемента:

    Вариант №1

    Em (2/4)
    1||--------0------||-------0---------||
    2||--------0------||-------0---------||
    3||*-------0------||-------0--------*||
    4||*-------|------||--2----|--------*||
    5||---2----|------||--|----|---------||
    6||---|----|------||--|----|---------||
    | | | |


    Вариант №2

    Em (6/8)
    1||------------0----------||------------0----------||
    2||---------0--|--0-------||---------0--|--0-------||
    3||*-----0--|--|--|--0----||------0--|--|--|--0---*||
    4||*-----|--|--|--|--|----||---2--|--|--|--|--|---*||
    5||---2--|--|--|--|--|----||---|--|--|--|--|--|----||
    6||---|--|--|--|--|--|----||---|--|--|--|--|--|----||
    |__|__|__|__|__| |__|__|__|__|__|
    p i m a m i p i m a m i


    Вариант №3

    Em (2/4)
    1||---------0-------||---------0--------||
    2||---------0-------||---------0--------||
    3||*-----0--|--0----||------0--|--0----*||
    4||*-----|--|--|----||---2--|--|--|----*||
    5||---2--|--|--|----||---|--|--|--|-----||
    6||---|--|--|--|----||---|--|--|--|-----||
    |__|__|__| |__|__|__|
    p i m/a i


    Вариант №4

    Em (2/4)
    1||------------0----||------------0-----||
    2||---------0--|----||---------0--|-----||
    3||*-----0--|--|----||------0--|--|----*||
    4||*-----|--|--|----||---2--|--|--|----*||
    5||---2--|--|--|----||---|--|--|--|-----||
    6||---|--|--|--|----||---|--|--|--|-----||
    |__|__|__| |__|__|__|
    p i m a


    Вариант №5

    Em (3/4)
    1||--------0----0----||-------0----0-----||
    2||--------0----0----||-------0----0-----||
    3||*-------0----0----||-------0----0----*||
    4||*-------|----|----||--2----|----|----*||
    5||---2----|----|----||--|----|----|-----||
    6||---|----|----|----||--|----|----|-----||
    | | | | | |
    p i/m/a


    Вариант №6

    Em (4/4)
    1||---0----0----0----0----||
    2||---0----0----0----0----||
    3||---0----0----0----0----||
    4||---|----|----|----|----||
    5||---2----2----2----2----||
    6||---|----|----|----|----||
    | | | |


    Вариант №7

    Em (4/4)
    1||---0/\--0/\--0/\--0/\---||
    2||---0|---0|---0|---0|----||
    3||---0|---0|---0|---0|----||
    4||---0|---0|---0|---0|----||
    5||---2|---2|---2|---2|----||
    6||---0|---0|---0|---0|----||
    | | | |

    Вариант №8

    Em (6/8)
    1||--------0-----------0----||
    2||--------0-----------0----||
    3||--------0-----------0----||
    4||--------|------2----|----||
    5||---2----|------|----|----||
    6||---|----|------|----|----||





    Авторизация





    Зарегистрироваться

    M

    Дата и время

    • 12:07:20
       

    Социальные ссылки


    Наши приложения

    • Muzbank App Play Market
    • Muzbank Amazon App