MUZBANK



A MOST COMPLETE BANK OF MUSIC INFORMATION

МУЗЫКАЛЬНО-ИНФОРМАЦИОННЫЙ БАНК







    AA Perfect Circle • The Package (аккорды и текст - chords & lyrics)


    211

    Print

    Видео «The Package (A Perfect Circle)»

    Видео клипы к песне подбираются автоматически сайтом youtube. Возможны некоторые несоответствия клипов песне.

    ↑ Спрятать рекламу ↑






     
    
    
    this song was tabs in D tuning but is probly played in C.
    
    G|------------------------------------|
    D|------------------------------------|
    A|-5-/8-------------5-3--------------|
    D|------0--3-3--0--------0--1-1--0----|      repeat
      **or {0--1-1--0}
    
    G|-----------|
    D|-----------|
    A|-----------|
    D|-1-1-1-0---|
    
    
    G|------------------------------------|
    D|------------------------------------|
    A|-5-/8-------------5-3--------------|
    D|------0--3-3--0--------0--1-1--0----|      repeat
      **or {0--1-1--0}
    
    these are the main 2 riffs i heard in the song. It should give you and idea on how its played.
    
    it can also be played just on the bottom D string to add more bass like this:
    whatever sounds best to you..
    
    
    G|------------------------------------------------------------
    D|------------------------------------------------------------
    A|------------------------------------------------------------
    D|-12--/15---0---1-1-0---12--10---0---1-1-0----------------
     

    Тональность:

    Это должно быть в ТОП-листе! - Топ-лист композиций



    Назад
    Рекомендуем посмотреть другие песни исполнителя «A Perfect Circle»:

    • Комменты Fb ()
    • Комменты ВК



    Добавить в Избранное Браузера
    Сохранить здесь Очистить


    x

    0


    +
    -

    +
    -

    -

    Авторизация





    Зарегистрироваться

    M

    Дата и время

    • 13:56:46
       

    Социальные ссылки


    Наши приложения

    • Muzbank App Play Market
    • Muzbank Amazon App