MUZBANK



A Most Complete Bank Of Music Information

МУЗЫКАЛЬНО-ИНФОРМАЦИОННЫЙ БАНК

Поиск по сайту







    AA Static Lullaby • Lipgloss And Letdown (аккорды и текст - chords & lyrics)


    170

    Print

    Видео «Lipgloss And Letdown (A Static Lullaby)»

    Видео клипы к песне подбираются автоматически сайтом youtube. Возможны некоторые несоответствия клипов песне.

    ↑ Спрятать рекламу ↑



    Download



     
    
    
    -------------------------------------------------------------------------------
    			     Lipgloss and Letdown - A Static Lullaby
    -------------------------------------------------------------------------------
    
    
    
    
    Tabbed by:Ryan (ibledonstages)
    Email: 
    
    Tuning:Drop D DADGBE low to high
    
    Lipgloss and Letdown
    
    guitar 1 intro
    -------------------------------------------
    -------------------------------------------
    -------------------------------------------
    --7----3----7----3----7----3----5----3-----
    --7-x4-3-x5-7-x4-3-x5-7-x4-3-x5-5-x3-3-----
    --7----3----7----3----7----3----5----3-----
    
    guitar 2 intro
    -----------------------------------------------------
    --5-----5----5----5----5----5------------------------
    ---5-5--5-x4--5-5-5-x4--5-5-5-x4---------------------
    ----7---3------7--3------7--3----5----3--------------
    ---------------------------------5-x3-3---------3.5*-
    ---------------------------------5----3-----3.5*-----
    
    guitar 1 prechorus
    --------------------------------
    --------------------------------
    -5----7----10----10-------------
    -5-x4-7-x4-10-x3-10-x3----------
    -3----5----8-----7--------------
    --------------------------------
    
    guitar 2 prechorus
    ------------------------------
    ------------------------------
    -5----7----5-x3-5-x3----------
    -5-x4-7-x4-3----2-------------
    -3----5-----------------------
    ------------------------------
    
    
    guitar 1 chorus  
    ---------------------------------------------------
    ---------------------------------------------------
    -------------5---------------------------5---------
    -7-----3-----5-x16-5---------7-----3-----5-x16-3-3-
    -7-x16-3-x16-3-----5-x16-----7-x16-3-x16-3-----3-3-
    -7-----3-----------5---------7-----3-----------3-3-
    
    guitar 2 chorus 
    --------------------------------------------------
    --------------------------------------------------
    -9-----5-----5-----7/9-9-9/7-7-7/9/12-12-12-------
    -7-x16-3-x16-5-x16-5/7-7-7/5-5-5/7/10-10-10-------
    -------------3------------------------------------
    --------------------------------------------------
    
    --------------------------
    --------------------------
    -9-----5-----5------------
    -7-x16-3-x16-5-x16-3-3----
    -------------3-----3-3----
    -------------------3-3----
    
    guitar 2 verse 2 Fast As Fuck (not sure about this)
    ---------------------------
    ---------------------------
    ---------------------------
    --0-3-7-3-5-7-8-7-5-7-5-7--
    ---------------------------
    ---------------------------
    
    guitar 1 prechorus
    ---------------------------------------------------
    ---------------------------------------------------
    ---------------------------------------------------
    -7-----10-----3-----7-----7-----10----3-----7------
    -7-x16-10-x16-3-x16-7-x16-7-x16-10-x6-3-x16-7-x16--
    -7-----10-----3-----7-----7-----10----3-----7------ 
    
    guitar 2 prechorus (figure out the strumming yourself aint that hard)
    
    -------------------------------------------------
    -------------------------------------------------
    -9-14-12-17-16-17-16-9-14-12-17-16-17-19-17------
    -7-12-10-15-14-15-14-7-12-10-15-14-15-17-15------
    -7-12-10-15-14-15-14-7-12-10-15-14-15-17-15------
    -------------------------------------------------
    
    guitar 1 2nd chorus  
    -----------------------------
    -----------------------------
    -------------5---------------
    -7-----3-----5-x16-5---------
    -7-x16-3-x16-3-----5-x16-----
    -7-----3-----------5---------
    
    guitar 2 chorus 
    --------------------------------------------------
    --------------------------------------------------
    -9-----5-----5-----7/9-9-9/7-7-7/9/12-12-12-------
    -7-x16-3-x16-5-x16-5/7-7-7/5-5-5/7/10-10-10-------
    -------------3------------------------------------
    --------------------------------------------------
    
    breakdown guitar 1
    ----------------------------------------------------
    ----------------------------------------------------
    ----------------------------------------------------
    -3-3/7-9----3---------7-----3-----7-----------------
    -3-3/7-7-x2-3-x16-----7-x16-3-x16-7-x10? pickscrape-
    -3-3/7-7----3---------7-----3-----7-----------------
    
    breakdown guitar 2
    -----------------------------------------------------
    -6----5-----6-------5-------6----8-6-5-6-5-8-6-5-----
    --5-5--5-5---5-5-x4--5-5-x4--5-5---------------------
    ---7----7-----7-------7-------7----------------------
    -----------------------------------------------------
    -----------------------------------------------------
    
    guitar 1 3nd chorus  
    -----------------------------
    -----------------------------
    -------------5---------------
    -7-----3-----5-x16-5---------
    -7-x16-3-x16-3-----5-x16-----
    -7-----3-----------5---------
    
    guitar 2 chorus 
    --------------------------------------------------
    --------------------------------------------------
    -9-----5-----5-----7/9-9-9/7-7-7/9/12-12-12-------
    -7-x16-3-x16-5-x16-5/7-7-7/5-5-5/7/10-10-10-------
    -------------3------------------------------------
    --------------------------------------------------
    
    guitar 1 outro
    ------------------------------------------
    ------------------------------------------
    -10-9-5----12-10-9------------------------
    -8--7-3-x4-10-8--7-x4---3-x16-7-x16-------
    -8--7-3----10-8--7------3-----7-----------
    ------------------------3-----7-----------
    
    guitar 2 outro (not sure about this as well)
    -----------------------------------
    -8---------13----------------------
    --7-5--------12-10-over and over---
    -----------------------------------
    -----------------------------------
    -----------------------------------
    
    
    Now In Stores demo coming soon
     

    Тональность:

    Нет текста!



    Назад
    Рекомендуем посмотреть другие песни исполнителя «A Static Lullaby»:

    • Комментарии Facebook ()
    • Комментарии ВКонтакте



    Добавить в Избранное Браузера
    Сохранить здесь Очистить


    x

    0


    +
    -

    +
    -

    -

    Авторизация





    Зарегистрироваться

    M

    Дата и время

    • 17:21:43
       

    Социальные ссылки


    Наши приложения

    • Muzbank App Play Market
    • Muzbank Amazon App