MUZBANK



A Most Complete Bank Of Music Information

МУЗЫКАЛЬНО-ИНФОРМАЦИОННЫЙ БАНК

Поиск по сайту







    AABBA • Like An Angel Passing Through My Room (аккорды и текст - chords & lyrics)


    284

    Print

    Видео «Like An Angel Passing Through My Room (ABBA)»

    Видео клипы к песне подбираются автоматически сайтом youtube. Возможны некоторые несоответствия клипов песне.

    ↑ Спрятать рекламу ↑



    Download



    Chords: C F Gm
    
    Long awaited darkness falls, casting shadows on the walls
    In the twilight hour I am alone, sitting near the fireplace
    Dying embers warm my face. In this peaceful solitude, all
    The outside world subdued. And it all comes back to me
    Tonight, in the gloom. Like an angel passing through my room.
    
    Half awake and half in dreams
    Seeing long forgotten scenes
    So the present runs into the past
    Now and then become entwined
    Playing games within my mind
    Like the embers as they die
    Love was one prolonged goodbye
    And it all comes back to me tonight
    In the gloom
    Like an angel passing through my room
    
    I close my eyes And my twilight images go by
    all too soon
    Like an angel passing through my room.
    
    Here is the melody tab:
    
    Long awaited  darkness falls casting shadows on the walls
    
    E|-------------------------------------------------------------|
    B|---------1---1-------------------------------3--3--3----1--1-|
    G|-2--2-----------0---0---3---------3---3----------------------|
    D|-------------------------------------------------------------|
    
    In the twilight hour I am alone sitting near the fireplace
    
    E|-------------------------------------------------------------|
    B|----------6--6----------------3--3---------------------------|
    G|-5---5-------------3---3--------------0--0--2--2--0--0--2--2-|
    D|-------------------------------------------------------------|
    
    Dying embers warm my face? in this peaceful solitude
    E|-------------------------------------------------------------|
    B|-------------------------------------------------1----1------|
    G|-2--3--3--2--2--3--3-----------2---2--------------0---0----3-|
    D|-------------------------------------------------------------|
    
    All the outside world subdued everything comes back to me again
    E|-------------------------------------------------------------|
    B|---------3---3---3---1-------------------6---6---------------|
    G|-3---3-------------------5---5---5---5--------------7---7--2-|
    D|------------------------------------------------8---8--------|
    
        In the gloom        like an angel passing thru my room
    E--------------------------------------------------------------|
    B--------------------------------------------------------------|
    G---3----2---0-------------0---2----2----0---0---2---2----0--3-|
    D--------------------------------------------------------------|
    
         I                     close     my     eyes
    E|-----3~~~~~~~----------1---------------------------------|
    B|---------------------------------------------------------|
    G|--------------------------------------2--------------(0)-|
    D|---------------------------------------------------------|
    
        And my twolight images go by
    E|---------------------------------------------------------|
    B|---------------------------------------------------------|
    G|-----0-------2---2-----0--0-----2---2----3----2~~~~~~~~~-|
    D|---------------------------------------------------------|
    
        All to soon like an angel passing thru my room
    E|-3~~~~~~~----------------------------------------------------|
    B|----------------6--------------------------------------------|
    G|----------------------------0-----2--2----0--0----2--2-----0-|
    D|------------------------7------------------------------------|
    

    Тональность:

    Нет текста!



    Назад
    Рекомендуем посмотреть другие песни исполнителя «ABBA»:

    • Комментарии Facebook ()
    • Комментарии ВКонтакте



    Добавить в Избранное Браузера
    Сохранить здесь Очистить


    x

    0


    +
    -

    +
    -

    -

    Авторизация





    Зарегистрироваться

    M

    Дата и время

    • 23:22:01
       

    Социальные ссылки


    Наши приложения

    • Muzbank App Play Market
    • Muzbank Amazon App