MUZBANK



A Most Complete Bank Of Music Information

МУЗЫКАЛЬНО-ИНФОРМАЦИОННЫЙ БАНК

Поиск по сайту







    AAC/DC • Back In Black 2 (аккорды и текст - chords & lyrics)


    397

    Print

    Видео «Back In Black 2 (AC/DC)»

    Видео клипы к песне подбираются автоматически сайтом youtube. Возможны некоторые несоответствия клипов песне.

    ↑ Спрятать рекламу ↑



    Download


    E Dsus4 A
    E|-------------30----------------------------------|
    B|---333---------30-----------333------------------|
    G|---222--222------2b(4)0-----222--222-------------|
    D|2--000--222--------------2--000--222-------------|
    A|2-------000--------------2-------000-------------|
    E|0------------------------0------------74-75-76-77|
    
    Chorus:
    
    A E B E B A E B E B G D A E A G D A E A A E B E B
    E|----------------------3-2-------3-2-----------------
    B|----------------------3-3-------3-3-----------------
    G|2---4---4--2---4---4--0-2-2---2-0-2-2---2--2---4---4
    D|2-2-4-2-4--2-2-4-2-4--0-0-2---2-0-0-2---2--2-2-4-2-4
    A|0-2-2-2-2--0-2-2-2-2------0---0-----0---0--0-2-2-2-2
    E|--0---0------0---0----------3---------3------0---0--
    
    A E B E B G G GGGG DDD
    E|-----------3-3-3333--222---|
    B|-----------3-3-3333--333---| Back To Verse Riff
    G|2---4---4--4-4-4444--222---|
    D|2-2-4-2-4--5-5-5555--000---|
    A|0-2-2-2-2--5-5-5555--------|
    E|--0---0----3-3-3333--------|
    [________] Back In Black...
    |______________________For all you begginers who dont
    Know how to play barre chords,
    just play a G and it sounds fine.
    
    
    Solo: I'll write the beginning of the solo, but i dont know all of it.
    
    Lead
    E|----------------------------------|
    B|-----------2h3-2h3----------------|
    G|----------------------------9997h9|
    D|----------------------------------|
    A|-7--5--4-22---------7--5--4-------|
    E|0--0--0------------0--0--0--------|
    
    And here's the rhythm guiar part in the solo (Rhythm Figure #2)
    Rhythm
    E|---------------------------------------|
    B|---------------------------------------|
    G|---------------------------------2-1---|
    D|9-777-777-999-999-999-777-777--2-2-2-2-|
    A|7-555-444-777-777-777-555-444--2-0-2-2-|
    E|0-000-000-000-000-000-000-000--0---0-0-|
    
    The deal with the solo is the lead part is out there, but you can
    hear the rhythm under it. In the beginning if you listen the rhythm
    and the lead parts really fall together. I couldn't write it out
    But listen to it, you'll get the idea.
    
    Second Solo:
    Lead
    
    E|-------------------------------|
    B|-------------------------------|
    G|--------------4x---------------|
    D|------------------5s424--------|
    A|-5s424-----------0-----4-757677|
    E|0-----4-757677-----------------|
    
    Basically you do the first one 4x, the you do the same riff just up a string.
    
    Third Solo:
    
    E|--------------------------------------------|
    B|12fb(14)r-10-----------535-323-202-2/- 12---|
    G|---------------------------------------12---|
    D|-----------------------------------------14-|
    A|--------------------------------------------|
    E|--------------------------------------------|
    "Out Of sight"
    
    Then the song just fades out.
    
    This is how the song plays out:
    
    Intro/Verse
    Chorus
    Verse
    Chorus
    Solo
    Chorus
    Solo 2
    Chorus
    Solo 3, fade out
    

    Тональность:

    Нет текста!



    Назад
    Рекомендуем посмотреть другие песни исполнителя «AC/DC»:

    • Комментарии Facebook ()
    • Комментарии ВКонтакте



    Добавить в Избранное Браузера
    Сохранить здесь Очистить


    x

    0


    +
    -

    +
    -

    -

    Авторизация





    Зарегистрироваться

    M

    Дата и время

    • 11:36:18
       

    Социальные ссылки


    Наши приложения

    • Muzbank App Play Market
    • Muzbank Amazon App