MUZBANK



A Most Complete Bank Of Music Information

МУЗЫКАЛЬНО-ИНФОРМАЦИОННЫЙ БАНК

Поиск по сайту







    AAC/DC • Burnin Alive (аккорды и текст - chords & lyrics)


    254

    Print

    Видео «Burnin Alive (AC/DC)»

    Видео клипы к песне подбираются автоматически сайтом youtube. Возможны некоторые несоответствия клипов песне.

    ↑ Спрятать рекламу ↑



    Download


    E|-------------------|--------------------|------------------|
    B|-------------------|--------------------|------------------|
    G|--6----------------|--------2-----------|------------------|
    D|--6----------------|--------2--------2--|------------------|
    A|--4----------------|--------0--------2--|------------------|
    E|-------------------|-----------------0--|------------------|
    
    |---------------------|------------------|---------------------|
    |---------------------|------------------|---------------------|
    |--------4---------6--|------------------|---------2-----------|
    |--------4---------6--|------------------|--2------2--------2--|
    |--------2---------4--|------------------|--2------0--------2--|
    |---------------x-----|------------------|--0---------------0--|
    
    |------------------|----------------------|------------------|
    |------------------|----------------------|------------------|
    |------------------|---------4---------6--|------------------|
    |------------------|------x--4------x--6--|------------------|
    |------------------|------x--2------x--4--|------------------|
    |------------------|----------------------|------------------|
    
    |------------------------|------------------|---------------------|
    |------------------------|------------------|---------------------|
    |-----------2------------|------------------|--------4---------6--|
    |-----------2---------2--|------------------|--------4---------6--|
    |-----------0---------2--|------------------|--------2------x--4--|
    |--0--2--4---------0--0--|------------------|---------------x-----|
    
    |------------------|------------------------|------------------|
    |------------------|------------------------|------------------|
    |------------------|-----------2------------|------------------|
    |------------------|-----------2------------|------------------|
    |------------------|-----------0---------2--|------------------|
    |------------------|--0--2--4---------0--0--|------------------|
    
    theme (same as chorus):
    |-------------------------|-----------------------|------------------------|
    |-------------------------|-----------------------|------------------------|
    |-----------4----4--4-----|--6----6----6--6--6----|-----------2------------|
    |-----------4----4--4-----|--6----6----6--6--6----|-----------2------------|
    |-----------2----2--2-----|--4----4----4--4--4----|-----------0---------2--|
    |--0--2--4-------------0--|-----------------------|--0--2--4---------4--0--|
    
    |-------------------|-------------------------|-----------------------|
    |-------------------|-------------------------|-----------------------|
    |------1------------|-----------4----4--4-----|--6----6----6--6--6----|
    |------2------------|-----------4----4--4-----|--6----6----6--6--6----|
    |------2------------|-----------2----2--2-----|--4----4----4--4--4----|
    |------0------------|--0--2--4-------------0--|-----------------------|
    
    |------------------------|-------------------|-------------------------|
    |------------------------|-------------------|-------------------------|
    |-----------2------------|------1------------|-----------4----4--4-----|
    |-----------2------------|------2------------|-----------4----4--4-----|
    |-----------0---------2--|------2------------|-----------2----2--2-----|
    |--0--2--4---------4--0--|------0------------|--0--2--4-------------0--|
    
    Burnin' alive set my soul on fire
    |-------------------------|-----------------------|-------------------------|
    |-------------------------|-----------------------|-------------------------|
    |-------------------------|-----------------------|-------------------------|
    |--6-------------------6--|-----------------------|--6-------------------6--|
    |--4----4-----------2--4--|------4-----------2----|--4----4-----------2--4--|
    |----------0--2--4--------|---------0--2--4-------|----------0--2--4--------|
    
    runnin' with a gun this
    |-----------------------|-------------------------|-----------------------|
    |-----------------------|-------------------------|-----------------------|
    |-----------------------|-------------------------|-----------------------|
    |-----------------------|--6-------------------6--|-----------------------|
    |------4-----------2----|--4----4-----------2--4--|------4-----------2----|
    |---------0--2--4-------|----------0--2--4--------|---------0--2--4-------|
    
    place is gonna burn no firewater
    |-------------------------|-----------------------|----------------------|
    |-------------------------|-----------------------|----------------------|
    |-------------------------|-----------------------|--6--6--6--4----------|
    |--6-------------------6--|-----------------------|--6--6--6--4----------|
    |--4----4-----------2--4--|------4-----------2----|--4--4--4--2----------|
    |----------0--2--4--------|---------0--2--4-------|----------------------|
    
    or novacaine no thunderstorm no John Wayne
    |----------------------|----------------------|--------------------------|
    |----------------------|----------------------|--------------------------|
    |----------------------|--6--6--6--4----------|--------------------------|
    |--4--4--4--2----------|--6--6--6--4----------|--4--4--4-----------------|
    |--4--4--4--2----------|--4--4--4--2----------|--4--4--4--2--------2--4--|
    |--2--2--2--0----------|----------------------|--2--2--2--0--2--4--------|
    
    no kids to rock nowhere to run
    |----------------------|----------------------|------------------------|
    |----------------------|----------------------|------------------------|
    |--6--6--6--4----------|----------------------|--6--6--6--4------------|
    |--6--6--6--4----------|--4--4--4--2----------|--6--6--6--4------------|
    |--4--4--4--2----------|--4--4--4--2----------|--4--4--4--2----2----2--|
    |----------------------|--2--2--2--0----------|----------------0----0--|
    
    so watch out... burnin' a-
    |--------------------|------------------|--------------------------|
    |--------------------|------------------|--------------------------|
    |--------------------|------------------|--------------------------|
    |--4--------------2--|------------------|--------------2--2--2--2--|
    |--4--------------2--|------------------|--2--2--2--2--2--2--2--2--|
    |--2--------------0--|------------------|--0--0--0--0--0--0--0--0--|
    
    live burnin' alive
    |-----------------------|------------------------|-------------------|
    |-----------------------|------------------------|-------------------|
    |--6----6----6--6--6----|-----------2------------|------1------------|
    |--6----6----6--6--6----|-----------2------------|------2------------|
    |--4----4----4--4--4----|-----------0---------2--|------2------------|
    |-----------------------|--0--2--4---------4--0--|------0------------|
    
    burnin' alive burnin' alive
    |-------------------------|-----------------------|------------------------|
    |-------------------------|-----------------------|------------------------|
    |-----------4----4--4-----|--6----6----6--6--6----|-----------2------------|
    |-----------4----4--4-----|--6----6----6--6--6----|-----------2------------|
    |-----------2----2--2-----|--4----4----4--4--4----|-----------0---------2--|
    |--0--2--4-------------0--|-----------------------|--0--2--4---------4--0--|
    
    burnin' alive
    |-------------------|-------------------------|-----------------------|
    |-------------------|-------------------------|-----------------------|
    |------1------------|-----------4----4--4-----|--6----6------6--6--6--|
    |------2------------|-----------4----4--4-----|--6----6------6--6--6--|
    |------2------------|-----------2----2--2-----|--4----4------4--4--4--|
    |------0------------|--0--2--4-------------0--|-----------------------|
    
    burnin' alive they be
    |--------------------------|-----------------------|--------------------------|
    |--------------------------|-----------------------|--------------------------|
    |--6--4--4--4--4-----------|--6----6------6--6--6--|--6--4--4--4--4-----------|
    |--6--4--4--4--4--2--2--2--|--6----6------6--6--6--|--6--4--4--4--4--2--2--2--|
    |--4--2--2--2--2--2--2--2--|--4----4------4--4--4--|--4--2--2--2--2--2--2--2--|
    |-----------------0--0--0--|-----------------------|-----------------0--0--0--|
    
    smokin'... (2nd verse)
    |-------------------------|
    |-------------------------|
    |-------------------------|
    |--6-------------------6--|
    |--4----4-----------2--4--|
    |----------0--2--4--------|
    
    after 2nd chorus: an allout war
    |-----------------------|--------------------------|-------0------------|
    |-----------------------|--------------------------|-------0------------|
    |--6----6------6--6--6--|--6--4--4--4--4-----------|-------1------------|
    |--6----6------6--6--6--|--6--4--4--4--4--2--2--2--|-------2------------|
    |--4----4------4--4--4--|--4--2--2--2--2--2--2--2--|--2----2------------|
    |-----------------------|-----------------0--0--0--|--0-----------------|
    
    |-------------------------|-----------------------|------------------------|
    |-------------------------|-----------------------|------------------------|
    |-----------4----4--4-----|--6----6----6--6--6----|-----------2------------|
    |-----------4----4--4-----|--6----6----6--6--6----|-----------2------------|
    |-----------2----2--2-----|--4----4----4--4--4----|-----------0---------2--|
    |--0--2--4-------------0--|-----------------------|--0--2--4---------4--0--|
    
    somewhere
    |-------------------|-------------------------|-------------------|
    |-------------------|-------------------------|-------------------|
    |------1------------|-----------4----4--4--4--|--6----------------|
    |------2------------|-----------4----4--4--4--|--6----------------|
    |------2------------|-----------2----2--2--2--|--4----------------|
    |------0------------|--0--2--4----------------|-------------------|
    
    there's a little...
    |-----------------------|-------------------|-----------------------|
    |-----------------------|-------------------|-----------------------|
    |----4--4----4----------|--6----------------|----4--4----4----------|
    |----4--4----4----------|--6----------------|----4--4----4----------|
    |----2--2----2--2----2--|--4----------------|----2--2----2--2----2--|
    |---------------0----0--|-------------------|---------------0----0--|
    
    someday maybe... he'll inhale...
    |-------------------|-----------------------|-------------------|
    |-------------------|-----------------------|-------------------|
    |--6----------------|----4--4----4----------|--6----------------|
    |--6----------------|----4--4----4----------|--6----------------|
    |--4----------------|----2--2----2--2----2--|--4----------------|
    |-------------------|---------------0----0--|-------------------|
    to solo:
    |-------------------------|
    |-------------------------|
    |----4--4--4--4-----------|
    |----4--4--4--4--2--2--2--|
    |----2--2--2--2--2--2--2--|
    |----------------0--0--0--|
    
    solo over these chords:
    |-----|-----|-----|-----|
    |-----|-----|-----|-----|
    |--6--|--2--|--4--|-----|
    |--6--|--2--|--4--|--4--|
    |--4--|--0--|--2--|--4--|
    |-----|-----|-----|--2--|
    

    Тональность:

    Нет текста!



    Назад
    Рекомендуем посмотреть другие песни исполнителя «AC/DC»:

    • Комментарии Facebook ()
    • Комментарии ВКонтакте



    Добавить в Избранное Браузера
    Сохранить здесь Очистить


    x

    0


    +
    -

    +
    -

    -

    Авторизация





    Зарегистрироваться

    M

    Дата и время

    • 19:34:04
       

    Социальные ссылки


    Наши приложения

    • Muzbank App Play Market
    • Muzbank Amazon App