MUZBANK



A Most Complete Bank Of Music Information

МУЗЫКАЛЬНО-ИНФОРМАЦИОННЫЙ БАНК

Поиск по сайту







    AAC/DC • Cant Stand Still (аккорды и текст - chords & lyrics)


    317

    Print

    Видео «Cant Stand Still (AC/DC)»

    Видео клипы к песне подбираются автоматически сайтом youtube. Возможны некоторые несоответствия клипов песне.

    ↑ Спрятать рекламу ↑



    Download


    Riff A:
    E --5-5--4-4--2-2--|
    B --0-0--0-0--0-0--|
    G -----------------|
    D -----------------|
    A -----------------|
    E -----------------|
    
    Riff B:
    E --7-7-7-7--10-10-10-10--|
    B --0-0-0-0--0--0--0--0---|
    G ------------------------|
    D ------------------------|
    A ------------------------|
    E ------------------------|
    
    Riff C:
    E --7-7--10-10--12-12--5-5--7-7--10-10--7-7---|
    B --0-0--0--0---0--0---0-0--0-0--0--0---0-0---|
    G --------------------------------------------|
    D --------------------------------------------|
    A --------------------------------------------|
    E --------------------------------------------|
    
    Intro
    Riff A (4x)
    Riff B (2x)
    Riff A (2x)
    Riff C
    
    Repeat Intro
    

    Тональность:

    Нет текста!



    Назад
    Рекомендуем посмотреть другие песни исполнителя «AC/DC»:

    • Комментарии Facebook ()
    • Комментарии ВКонтакте



    Добавить в Избранное Браузера
    Сохранить здесь Очистить


    x

    0


    +
    -

    +
    -

    -

    Авторизация





    Зарегистрироваться

    M

    Дата и время

    • 03:29:08
       

    Социальные ссылки


    Наши приложения

    • Muzbank App Play Market
    • Muzbank Amazon App