MUZBANK



A Most Complete Bank Of Music Information

МУЗЫКАЛЬНО-ИНФОРМАЦИОННЫЙ БАНК

Поиск по сайту







    AAC/DC • C.o.d. (аккорды и текст - chords & lyrics)


    298

    Print

    Видео «C.o.d. (Ac Dc)»

    Видео клипы к песне подбираются автоматически сайтом youtube. Возможны некоторые несоответствия клипов песне.

    ↑ Спрятать рекламу ↑



    Download


     
    
    
    C.O.D. by AC/DC
    Standard Tuning
    
    G:----------|      |-------------|
    D:----------|  x3  |-------------|
    A:---1--3--1|      |1--1-------3~|
    E:3---------|      |------3--1---|
    
    (0.51)
    G:---------------------------|
    D:---------------------------|
    A:------3(16)-------1-2-3(16)|
    E:3(16)-------3(14)----------|
    
    (Chorus)
    G:-------------------|
    D:-------------------|  x3
    A:--1-3---1---------3|
    E:3-----3---1-1-1-1--|
    
    G:---------------3-2----------------|
    D:-------------------3-2-2-3-2-3----|
    A:1-1-1-1-----3------------------3--|
    E:--------3-1----------------------3|
    
    G:--------------------|
    D:------3-------3-----|  x4
    A:--------3-0-1---3(6)|
    E:3(16)---------------|
    
    (2.13)
    G:---------|      |-----------|
    D:---------|  x4  |-----------|
    A:--1-3---1|      |----------3|
    E:3-----3--|      |1-1-1-1-1--|
    
    G:----------------|
    D:-----3-3-3-3-2--|
    A:---------------3|
    E:3(8)------------|
    
    (Outro)
    G:--------------------------|
    D:---------3--3--3----------|
    A:------------------3-------|
    E:3--3--3-----------------3~|
    
    Thanks, please rate it after you learn it.
    Tabbed by:
    _TheBassist01_
     

    Тональность:

    Нет текста!



    Назад
    Рекомендуем посмотреть другие песни исполнителя «AC/DC»:

    • Комментарии Facebook ()
    • Комментарии ВКонтакте



    Добавить в Избранное Браузера
    Сохранить здесь Очистить


    x

    0


    +
    -

    +
    -

    -

    Авторизация





    Зарегистрироваться

    M

    Дата и время

    • 15:35:42
       

    Социальные ссылки


    Наши приложения

    • Muzbank App Play Market
    • Muzbank Amazon App