MUZBANK



A Most Complete Bank Of Music Information

МУЗЫКАЛЬНО-ИНФОРМАЦИОННЫЙ БАНК

Поиск по сайту







    AAC/DC • Have A Drink (аккорды и текст - chords & lyrics)


    252

    Print

    Видео «Have A Drink (AC/DC)»

    Видео клипы к песне подбираются автоматически сайтом youtube. Возможны некоторые несоответствия клипов песне.

    ↑ Спрятать рекламу ↑



    Download


    1/2
    |-------------------|---------------------------------------|---------
    |-------8~~~--8-----|-------8-------------------------------|---------
    |--7/9--------9~~~--|--7/9-----9⁄7p5-----7------5-----------|--5------
    |-------------------|-----------------7---------------7-----|--5h6----
    |-------------------|------------------------------------0--|--0------
    |-------------------|---------------------------------------|---------
    
    
    1/2
    ----------------------|------------------------------------------|----
    -------------7--------|-------------8----------------------------|----
    -------------7--------|--------7/9-----9⁄7p5-----7---5-----------|----
    -------------7--------|-----------------------7------------7-----|----
    ----0-----0--0-----0--|---------------------------------------0--|----
    ----------------------|------------------------------------------|----
    
    
    1/2
    -----------------------------|---------------------------------|------
    --------------7--------------|-------8-------------------------|------
    5h6-----------7--------------|--7/9-----9⁄7p5-----7---5--------|------
    5-------------7--------------|-----------------7---------7-----|------
    0----0-----0--0-----------0--|------------------------------0--|------
    -----------------------------|---------------------------------|------
    
    
    
    ------------------------|-------------------------------|-------------
    ---------3--------------|-------------2-----------------|-------------
    2--------2--------------|--5-------5--2-----------------|--5h6--------
    2--------0--------------|--5-------5--2-----------------|--5----------
    0-----0--0-----------0--|--3p0-----3--0--------0-----0--|--0----0-----
    ------------------------|-------------------------------|-------------
    
    
    1/2
    ---------------------|---------------------------------|--------------
    ---------------------|-------8-------------------------|--------------
    ---------7-----------|--7/9-----9⁄7p5-----7---5--------|--5h6---------
    ---------7-----------|-----------------7---------7-----|--5-----------
    ---0-----0--------0--|------------------------------0--|--0----0------
    ---------------------|---------------------------------|--------------
    
    
    
    ---------------------|--------------------------------|---------------
    ---------7-----------|-----------------2--------------|---------------
    ---------7-----------|--5-----------5--2--------------|--5h6----------
    ---------7-----------|--5-----------5--2--------------|--5------------
    ---0-----0--------0--|--3-----0-----3--0-----------0--|--0----0-------
    ---------------------|--------------------------------|---------------
    
    
    1/4
    ------|------------------------------------------|--------------------
    ---7--|----------8-------------------------------|--------------------
    ---7--|-----7/9-----9⁄7p5-----7---5--------------|--5h6---------------
    ---7--|--------------------7--7---------7--------|--5-----------------
    0--0--|--------------------0--0---------0-----0--|--0----0-----0------
    ------|------------------------------------------|--------------------
    
    
    Oh....... whiskey
    ---------------|---------------------------||---------||--------------
    7--------------|-----------2---------------||---------||--------------
    7--------------|--5--------2------2-----0--||---------||*-------------
    7-----0--------|--5--------2---------------||---------||*--5-----4----
    0-----0-----0--|--3--0--3--0---------------||---------||---0-----0----
    ---------------|---------------------------||---------||--------------
    
    
    P.M.-------------------]P.M. P.M. P.M.
    ------------------------|---------------------------------------------
    ------------------------|---------------------------------------------
    ------------------------|---------------------------------------------
    5-----------------------|-----------5--5--4--5-----------7------------
    0---(0)--(0)--(0)--(0)--|---(0)-----0--0--0--0---(0)-----0---(0)------
    ------------------------|---------------------------------------------
    
    
    4x join me for..P.M..
    -||----------------------------|---------------------------|----------
    -||----------------------------|---------------------------|----------
    *||-------------------------2--|---------------------------|----------
    *||---5--5--4--5------2--2--2--|--5--5--4--5-------7-------|--5--5----
    -||---0--0--0--0---0--0--0--0--|--0--0--0--0--(0)--0--(0)--|--0--0----
    -||----------------------------|---------------------------|----------
    
    
    P.M. P.M.
    ---------------3--|---------------------------|-----------------------
    ---------3--3--3--|---------------------------|-----------------3-----
    ---------0--0--0--|---------------------------|-----------------2-----
    4--5-----0--0--0--|--5--5--4--5--------7------|--5--5--4--5-----0-----
    0--0--0-----------|--0--0--0--0---(0)--0---0--|--0--0--0--0--0--0-----
    ---------3--3--3--|---------------------------|-----------------------
    
    
    Forget about the check.............
    ------|---------------------------|--2--------2-----------|--1--------
    3--3--|---------------------------|--3--------3-----------|--1--------
    2--2--|---------------------------|--2--------2-----2--2--|--2--------
    0--0--|--5--5--4--5-----7---0--0--|--0-----0--0-----0--0--|--3--------
    0--0--|--0--0--0--0--0--0---------|-----------------------|--3--------
    ------|---------------------------|-----------------------|--1--------
    
    
    Have a........... P.M.
    ------3------------------||--------------------|----------------------
    ------3------------------||-------------7------|----------8-----------
    ------0---------3--------||--5h6--------7------|-----7/9-----9p7------
    ------0---------3--------||--5----------7---7--|----------------------
    -------------------------||--0-------0--0------|----------------------
    0-----3---------3-----0--||--------------------|----------------------
    
    
    1/4
    -----------------------|--------------------------|-------------------
    -----------------------|-----------7--------------|-------------------
    p5-----7---5-----------|--6--------7--------------|--5-----5--2-------
    ----7--7---------7--0--|--5-----0--7--------0--0--|--5-----5--2-------
    ----0--0---------0--0--|--0--0--0--0--------0--0--|--3--0--3--0-------
    -----------------------|--------------------------|-------------------
    
    
    1/4
    ------------|-------------------|-------------------------------------
    ------------|----------------7--|-------8------------7----------------
    ------------|--5h6-----------7--|--7/9-----9⁄7p5-----7---5------------
    ------------|--5-------------7--|-----------------7---------7--0------
    ---0-----0--|--0----0-----0--0--|-----------------0---------0--0------
    ------------|-------------------|-------------------------------------
    
    
    C'mon
    |-----------------------|---------------------------|-----------------
    |--------3--------------|---------------------------|-----------------
    |--2-----2--------------|--5--------2---------------|-----------------
    |--2-----0--------0-----|--5--------2---------------|--5-----4--5-----
    |--0--0--0-----------0--|--3--0--3--0------0-----0--|--0-----0--0-----
    |-----------------------|---------------------------|-----------------
    
    
    
    -----------|---------------------------|-------------------------|----
    -----------|---------------------------|-------------------------|----
    -----------|---------------------------|-------------------------|----
    -----------|--5--5--4--5-------7-------|--5--5--4--5-------------|----
    ------(0)--|--0--0--0--0--(0)--0--(0)--|--0--0--0--0--------(0)--|----
    -----------|---------------------------|-------------------------|----
    
    
    2. Oh Guitar Solo
    --------------------------||---|--------------||----------------------
    --------------------------||---|--x--x--5~~~--||--3--0----------------
    --------------------------||---|--------------||--------2--0--2-------
    5--5--4--5--------7-------||---|--------------||----------------------
    0--0--0--0---(0)--0--(0)--||---|--------------||----------------------
    --------------------------||---|--------------||----------------------
    
    
    Full hold bend Full
    ---------|-----------------------------|----0--0--0-------------------
    ---------|---3-------------------------|-------------3--0--3--0-------
    -(2)-----|---------(2)p0------------2--|p0-----------------------2----
    ---------|----------------2~~~--x------|------------------------------
    ---------|-----------------------------|------------------------------
    ---------|-----------------------------|------------------------------
    
    
    1/2 Full
    ------------------|---------------------------------------|-----------
    ------------------|-----3-----3-----3~~~-------5-----7p5--|---7-------
    0---2-----2--0--2/|--4--------4-----------4/6--6----------|-----------
    ------------------|---------------------------------------|-----------
    ------------------|---------------------------------------|-----------
    ------------------|---------------------------------------|-----------
    
    
    Full 3/4 3/4 3/4 3/4 Full
    0------------------------------------------|------------0-------------
    ----7---------7---------7---------7--------|------7---------7---------
    ----------9---------9---------9---------9--|--------------------------
    -------------------------------------------|--------------------------
    -------------------------------------------|--------------------------
    -------------------------------------------|--------------------------
    
    
    Full Full Full
    --------------0------0-------|----------------------------------------
    -------7------7------7--(7)--|--5--8--7p5-----5-----5~~~--(5)p2-------
    9----------------------------|-------------6-----6---------------0----
    -----------------------------|----------------------------------------
    -----------------------------|----------------------------------------
    -----------------------------|----------------------------------------
    
    
    1/2 Full Full
    0---------|--0--0--7-------------------------------|------------------
    ---0---8--|--0-----8------------0------------5--5--|------------5-----
    ----------|-----------9~~~--(9)⁄-------7-----------|---7--------------
    ----------|----------------------------------------|------------------
    ----------|----------------------------------------|------------------
    ----------|----------------------------------------|------------------
    
    
    Full Full Full Full hold bend
    --------------------------------------------------------|--7----------
    5-----5--5---------5--5---------5--5---------5---7------|-----7-------
    ---6---------7------------7------------7----------------|-------------
    --------------------------------------------------------|-------------
    --------------------------------------------------------|-------------
    --------------------------------------------------------|-------------
    
    
    Full Full Full Full(top note only)
    -------7---------7------7-------7--|-----5----------------------------
    -7---------7---------7----------7--|--------5--8--7--5-----5--5-------
    -----------------------------------|--------------------6-------------
    -----------------------------------|----------------------------------
    -----------------------------------|----------------------------------
    -----------------------------------|----------------------------------
    
    
    Full Full(top note) 1/2(top note)
    ------------|---------------------------------------------------------
    (5)⁄0-------|--15------15-----------15------15------------------------
    ----0---14--|----------14-----------14------14--------(14)-----12-----
    ------------|---------------------------------------------------------
    ------------|---------------------------------------------------------
    ------------|---------------------------------------------------------
    
    
    1/2
    |-----------------------------15--|---(15)----------------------------
    |--12-----------------------------|------------17p15------15~~~-------
    |------12------12--12--(12)⁄4/----|-------------------16--------------
    |----------14---------------------|-----------------------------------
    |---------------------------------|-----------------------------------
    |---------------------------------|-----------------------------------
    
    
    Full Full Full
    -------------------|--------------------------------------------------
    (15)⁄--------------|-------15-----------------------------------------
    ---------------12--|---14-------14------14~~~-------------------------
    --------10/14------|--------------------------------------------------
    -------------------|--------------------------------------------------
    -------------------|--------------------------------------------------
    
    
    Have a drink................etc.
    ------||-----------------------||-------------------------------------
    ------||-----------------------||-------------------------------------
    -(14)⁄||-----------------------||*------------------------------------
    ------||-----------------------||*------------------------------------
    ------||-----------------------||-------------------------------------
    ------||-----------------------||-------------------------------------
    
    
    Outro(Gonna roll around....etc.)
    ----------2--------------|-----------2-----------------|--------------
    ----------3--------3-----|-----------3-----------------|--------------
    -2-----2--2--------2--0--|--------0--2--------2--2--2--|--2-----0-----
    -2-----2--0--------0--0--|--5-----0--0--------2--2--2--|--2-----0-----
    -0-----0--0--------0-----|--5-----------------0--------|--0-----------
    -------------------------|--3--------------------------|--------------
    
    
    4x
    2--------------|--------------2------------||-------------------------
    3--------------|--3-----------3------------||-------------------------
    2--------0-----|--0-----------2-----2-----*||-------------------------
    0--------0--5--|--0-----------0-----0--2--*||-------------------------
    0-----------5--|--------------0--------0---||-------------------------
    ------------3--|--3-----3------------------||-------------------------
    

    Тональность:

    Нет текста!



    Назад
    Рекомендуем посмотреть другие песни исполнителя «AC/DC»:

    • Комментарии Facebook ()
    • Комментарии ВКонтакте



    Добавить в Избранное Браузера
    Сохранить здесь Очистить


    x

    0


    +
    -

    +
    -

    -

    Авторизация





    Зарегистрироваться

    M

    Дата и время

    • 11:03:05
       

    Социальные ссылки


    Наши приложения

    • Muzbank App Play Market
    • Muzbank Amazon App