MUZBANK



A MOST COMPLETE BANK OF MUSIC INFORMATION

МУЗЫКАЛЬНО-ИНФОРМАЦИОННЫЙ БАНК







    AAC/DC • Let Me Put My Love Into You (аккорды и текст - chords & lyrics)


    394

    Print

    Видео «Let Me Put My Love Into You (AC/DC)»

    Видео клипы к песне подбираются автоматически сайтом youtube. Возможны некоторые несоответствия клипов песне.

    ↑ Спрятать рекламу ↑






    Intro ⁄
    G| ----------------|---------------- |
    D|*----------------|----------------*|
    A|*----------------|----------------*|
    E| -----0-------0--|-----0-------0-- |
    
    4._____________
    ⁄
    G|----------------|
    D|----------------|
    A|-------------7-5|
    E|-----0------0---|
    
    G|----------------|----------------|
    D|----------------|----------------|
    A|----------------|----------------|
    E|-0-0-0-0-0-0-0-0|-0-0-0-0-0-0-0-0|
    
    G|----------------|----------------|
    D|----------------|----------------|
    A|---------5-5-5--|----------------|
    E|-0-0-0-0-------5|-5-5-5-5-5-5-5-5|
    
    G|----------------|----------------|
    D|----------------|----------------|
    A|----------------|-------------7-5|
    E|-0-0-0-0-0-0-0-0|-0-0-0-0-0-0----|
    
    G|----------------|----------------|
    D|----------------|----------------|
    A|-7-------5------|----------------|
    E|---------------5|-5-5-5-5-5-5-5-5|
    
    Verse 1
    G| ----------------|----------------|
    D|*----------------|----------------|
    A|*----------------|----------------|
    E| -0-0-0-0-0-0-0-0|-0-0-0-0-0-0-0-0|
    
    G|----------------|---------------- |
    D|----------------|----------------*|
    A|---------5-5-5--|----------------*|
    E|-0-0-0-0-------5|-5-5-5-5-5-5-5-5 |
    
    Pre-chorus
    G| ----------------|----------------|
    D|*----------------|----------------|
    A|*----------------|----------------|
    E| -0-----0--------|-5-----5--------|
    
    G|----------------|---------------- |
    D|----------------|----------------*|
    A|----------------|----------------*|
    E|-0----0---------|-5-5-3-5-------- |
    
    Chorus x3
    G| ----------------|---------------- |
    D|*----------------|----------------*|
    A|*-5-5-5-5--------|----------------*|
    E| ---------5-5-5-0|-5-5-5-5-5-5-5-5 |
    
    G|----------------|----------------|
    D|----------------|----------------|
    A|-5--------------|-------------7-5|
    E|--------5------0|(0)--------0----|
    
    Verse 2
    
    Pre-chorus
    
    Chorus
    
    G|----------------|----------------|
    D|----------------|----------------|
    A|----------------|----------------|
    E|----------------|-0-0-0-0-0-0-0-0|
    < < < <
    
    Guitar solo
    G| ----------------|----------------|
    D|*----------------|----------------|
    A|*----------------|----------------|
    E| -0-----0--------|-5-----5--------|
    
    G|----------------|---------------- |
    D|----------------|----------------*|
    A|----------------|----------------*|
    E|-0----0---------|-5-5-3-5-------- |
    
    ⁄
    G| ----------------|----------------|
    D|*----------------|----------------|
    A|*----------------|----------------|
    E| -0-0-0-0-0-0-0-0|-5-5-5-5-5-5-5-5|
    
    1._______________
    ⁄
    G|----------------|---------------- |
    D|----------------|----------------*|
    A|----------------|----------------*|
    E|-0-0-0-0-0-0-0-0|-5-5-3-5-5-5-5-5 |
    
    2.________________________________
    ⁄
    G|----------------|----------------|
    D|----------------|----------------|
    A|----------------|----------------|
    E|-5-5-5-5-5-5-5-5|-5-5-5-5-5-5-5-5|
    < < < < <
    
    
    Chorus x7
    G| ----------------|---------------- |
    D|*----------------|----------------*|
    A|*-5-5-5-5--------|----------------*|
    E| ---------5-5-5-0|-5-5-5-5-5-5-5-5 |
    
    G|----------------|----------------|
    D|----------------|----------------|
    A|-5--------------|----------------|
    E|--------5-------|-0--------------|
    
    G|----------------|----------------|------|
    D|----------------|----------------|------|
    A|----------------|-5--------------|------|
    E|-0--------------|----------------|-5----|
    

    Тональность:

    Это должно быть в ТОП-листе! - Топ-лист композиций



    Назад
    Рекомендуем посмотреть другие песни исполнителя «AC/DC»:

    • Комменты Fb ()
    • Комменты ВК



    Добавить в Избранное Браузера
    Сохранить здесь Очистить


    x

    0


    +
    -

    +
    -

    -

    Авторизация





    Зарегистрироваться

    M

    Дата и время

    • 02:30:28
       

    Социальные ссылки


    Наши приложения

    • Muzbank App Play Market
    • Muzbank Amazon App