MUZBANK



A Most Complete Bank Of Music Information

МУЗЫКАЛЬНО-ИНФОРМАЦИОННЫЙ БАНК

Поиск по сайту







    AAC/DC • Little Lover (аккорды и текст - chords & lyrics)


    294

    Print

    Видео «Little Lover (AC/DC)»

    Видео клипы к песне подбираются автоматически сайтом youtube. Возможны некоторые несоответствия клипов песне.

    ↑ Спрятать рекламу ↑



    Download


    G5 Em7 ~~~~~~
    e|------------------------------------|-----3-3----3-5-3-5-3--3------⁄--------|
    b|------------------------------------|-----3-3----3-5-3-5-3--3------⁄--------|
    g|--------0--0-----0-----0--0----0----|---------------------------------------|
    D|--------0--0-----0-----0--0----0----|---------------------------------------|
    A|------------------------------------|---------------------------------------|
    E|-3---3-------3------3-------------3-|-0-0------0----------------------------|
    G5 Em7 endpattern
    e|------------------------------------|-----3-3----3-5-3-5-3--3-3-------------|
    b|------------------------------------|-----3-3----3-5-3-5-3--3-3----3--------|
    g|--------0--0----0-0----0--0----0----|---------------------------------------|
    D|--------0--0----0-0----0--0----0----|---------------------------------------|
    A|------------------------------------|--------------------------------0------|
    E|-3---3-------3-----3--3------3----3-|-0-0------0----------------------------|
    Bridge (Oohh,Baby..)
    A5 A6 A5 A6 C5
    e|----------------------------------------------------------------------------|
    b|----------------------------------------------------------------------------|
    g|--2---2-----2-2---2-----2-2---2-----2-2---2----2--5---5-5---5-5---5-5---5-5-|
    D|--2---2-4---2-2---2-4---2-2---2-4---2-2---2-4--2--5---5-5---5-5---5-5---5-5-|
    A|--0---0-0---0-0---0-0---0-0---0-0---0-0---0-0--0--3---3-3---3-3---3-3---3-3-|
    E|----------------------------------------------------------------------------|
    
    e|------------------|
    b|------------------|
    g|---5-5---5-5---5--|
    D|---5-5---5-5---5--|
    A|---3-3---3-3---3--|
    E|------------------|
    Chorus (little lover...)
    No Chord Em7
    e|---------------------3---| |--------------------------------------|
    b|---------------------3---| |--------------------------------------|
    g|---------------------2---| |--------------------------------------|
    D|2---0--------------------|3x |---2--0-----2--0-----2--0----2--0-----|
    A|-------2-----------------| |--------------------------------------|
    E|----------3--0----0------| |-0-------3--------3-------3-------3---|
    Guitar Solo
    G5 G6 G5 G6 G5 G6 G5 G#5 A5 A6 A5 A6 A5 A6
    tr~~~~~~~~~~~~~~~~~~~ tr~~~~ tr~~~~~~~~~~~b b r
    e|-----------------|-----------------|-----------------|---5------------------|
    b|--3--(6)---------|------4--(7)-----|---5--(8)------8-|10---8-7-5-5----------|
    g|-----------------|-----------------|-----------------|----------7--7-5-7-9-7|
    D|-----------------|-----------------|-----------------|----------------------|
    A|-----------------|-----------------|-----------------|----------------------|
    E|-----------------|-----------------|-----------------|----------------------|
    A5 A#5 B5 B6 B5 B6 B5
    b~~~~~~~~~~~~~~ b r ~~~~~ b ~~~~~~
    e|-----------------------------------------7--------------7-10-7--------------|
    b|-------------------------9-10--9----7-10---7-10-12-------------10-7-7-------|
    g|-5-7-9--------------⁄----9-11--9--------------------------------------9-7-9-|
    D|----------------------------------------------------------------------------|
    A|----------------------------------------------------------------------------|
    E|----------------------------------------------------------------------------|
    B6 B5 C5 C6 C5
    ~~~~~~ b ~~~~~~ b r b r
    e|----------------------------------------8-----------------------------------|
    b|-------------------------------------/8---8--11-13------11-13-11-8-10-11-10-|
    g|7----9--7-------------------------------------------------------------------|
    D|--9--------9--7--7--7--7-9-----⁄--------------------------------------------|
    A|----------------------------------------------------------------------------|
    E|----------------------------------------------------------------------------|
    
    C6 C5 D5 D6 D5 D#5 D#6 D#5 ...lover
    ~~~~~~~~~~~~ b b b b r b r b
    e|----------------------------------------------------------------------------|
    b|----------------13----13-------13-⁄-----15-16--15-15-16---15-13--15-17------|
    g|9------------12-14-12-14----12-14-⁄-----------------------------------------|
    D|----------------------------------------------------------------------------|
    A|----------------------------------------------------------------------------|
    E|----------------------------------------------------------------------------|
    Outro (Bluesy Feeling both Guitars)
    / G5 b r b b ⁄
    e|----------------------------------|----------17-19-17-17-19-17-15-15-17-19--|
    b|----------------------------------|-----------------------------------------|
    g|----------------------------------|-----------------------------------------|
    D|----------------------------------|-----------------------------------------|
    A|----------------------------------|-----------------------------------------|
    E|----------------------------------|-----------------------------------------|
    | b r |
    e|----------------------------------|-----------------------------------------|
    b|--------------3--3----------------|-----3--3---2------3--3--------3--3------|
    g|--------0-----0--0----------------|-----0--2-2-3-2----0--0------2----0------|
    D|--------0--2------------------0---|-2--------------2------------------------|
    A|----------------------------------|-----------------------------------------|
    E|-3---3----------------------------|-----------------------------------------|
    ⁄........................................................................../
    
    / Em7 b r ~~~~~~~~ b ~~~~~~~~~ ⁄
    e|--------------14-15-14-12---------|----------19-----------------------------|
    b|----------------------------------|------------19-20--17--------------------|
    g|----------------------------------|-----------------------------------------|
    D|----------------------------------|-----------------------------------------|
    A|----------------------------------|-----------------------------------------|
    E|----------------------------------|-----------------------------------------|
    | ~~~~~~ ~~~~~~~~ ~~~~~~~~~~~ |
    e|------------------------5----5----|-------------------0---------------------|
    b|------------------------3----5----|-----------------------------------------|
    g|----------------------------------|-----------------------------------------|
    D|----------------------------------|----0-----2------------------2-----------|
    A|----------------------------------|-----------------------------------------|
    E|-0----0--0------------------------|--0-------------------3---0--------------|
    ⁄........................................................................../
    
    / G5 ~~~~~~~~~~ ~~~ ⁄
    e|------------3--5--3---------------|------3----------------------------------|
    b|------3--5------------------------|-------------5------3--------------------|
    g|--------------------------------3-|-4---------------------------------------|
    D|----------------------------------|-----------------------------------------|
    A|----------------------------------|-----------------------------------------|
    E|----------------------------------|-----------------------------------------|
    | |
    e|----------------------------------|-----------------------------------------|
    b|------------------3------3--3-----|-3-----------5--3---3----------3---------|
    g|------------------0------2--0-----|-0-----2-4------2-0-2-0----0-2-----0-----|
    D|----------0--2--------------------|------------------------2----------------|
    A|----------------------------------|-----------------------------------------|
    E|--3----3--------------------------|---------------------------------------3-|
    ⁄........................................................................../
    
    / Em7 ~~~~~~~~~~~ b r ⁄
    e|------------------10-9-7----------|----9-10-9-7-7---------------------------|
    b|----------------------------------|---------------------------------7-------|
    g|----------------------------------|-----------------------------------------|
    D|----------------------------------|-----------------------------------------|
    A|----------------------------------|-----------------------------------------|
    E|----------------------------------|-----------------------------------------|
    | ~~~~~~~~~~ |
    e|----------------------------------|-----------------------------------------|
    b|----------------------------------|-----------------------------------------|
    g|----------------------------------|------------------------0----------------|
    D|---------0--0-----0--2-----2------|----2---------2--------------------------|
    A|----------------------------------|-----------------------------------------|
    E|--0---0--------0--------3------0--|3------0-3-------------------0---0-------|
    ⁄........................................................................../
    
    / G5 b Em7 b r ⁄
    e|----------------------------------------------------|-----------------------|
    b|-----8--8-10-12-8-8--8------------------------------|---7-8-7--5--5---------|
    g|9-----------------------9-7----/-9------------------|-----------------6-----|
    D|----------------------------------------------------|-----------------------|
    A|----------------------------------------------------|-----------------------|
    E|----------------------------------------------------|-----------------------|
    | ~~|
    e|----------------------------------------------------|-----------------------|
    b|------------------3------------3/5⁄3--3-------------|-----------------------|
    g|-----0--0------0--0----------------------------0----|-----------------------|
    D|-----0--0------------------------0------------------|----------------0-2--2-|
    A|----------------------------------------------------|-----------------------|
    E|3--3---------3-----3---3---3---3/5⁄3-----3--3-----2-|0---0--0--0--0---------|
    ⁄........................................................................../
    
    Lyrics:
    Little Lover
    
    Saw you in the front row moving to the beat ,just movin' and groovin'
    Killed me when I saw the wet patch on your seat wasn't Coca Cola
    Oh baby ,I hope you liked the show , when the band said good night
    I had to say hello
    
    CHORUS:
    Little lover, I can't get you off my mind
    Little lover, I've been trying hard to find someone like you
    
    Oh baby
    You sure looked sweet cruisin'
    A leg either side of my motorcycle seat just oozin'
    Could have been a nightmare , could have been a dream
    But on my way home, babe I thought I heard you scream
    
    CHORUS
    
    You had my picture on your bedroom wall next to Gary Glitter
    I was standing on the stage playing rock 'n' roll
    I was a guitar picker
    Never had a record never had a hit ,oh baby , you didn't mind a bit
    
    Baby I know you're a - Little lover
    

    Тональность:

    Нет текста!



    Назад
    Рекомендуем посмотреть другие песни исполнителя «AC/DC»:

    • Комментарии Facebook ()
    • Комментарии ВКонтакте



    Добавить в Избранное Браузера
    Сохранить здесь Очистить


    x

    0


    +
    -

    +
    -

    -

    Авторизация





    Зарегистрироваться

    M

    Дата и время

    • 11:45:44
       

    Социальные ссылки


    Наши приложения

    • Muzbank App Play Market
    • Muzbank Amazon App