MUZBANK



A Most Complete Bank Of Music Information

МУЗЫКАЛЬНО-ИНФОРМАЦИОННЫЙ БАНК

Поиск по сайту







    AAC/DC • Shake Your Foundations (tab) (аккорды и текст - chords & lyrics)


    292

    Print

    Видео «Shake Your Foundations (tab) (AC/DC)»

    Видео клипы к песне подбираются автоматически сайтом youtube. Возможны некоторые несоответствия клипов песне.

    ↑ Спрятать рекламу ↑



    Download


     
    
    
    Transcribed by Rolo Cooke on Febrary 24th.
     
     e-----------------------------------------
     B|--8-----8--|----10-------10-------8-----10-------10-------8~~~~-
     G|--7-----7--|----7--------7--------7-----7--------7--------7~~~~-
     D|-----0-----|-0-----0--0-----0--0-----0-----0--0-----0--0--------
     A-----------------------------------------
     E-----------------------------------------
     
       -----------3----------------------------------------------------|
       -----5-----0-----------6--------5-----8--8-----8----------------|
       -----5-----0-----------7--------5-----7--7-----7----------------|
       --0-----0-----------0--------0-----0--------0-------------------|
       ----------------------------------------------------------------|
       ----------------------------------------------------------------|
       
     
     That`s all folks.
     
    Publicado sobre  
     (1985)      
     Who Made Who (1986)      
      
      
    Tablatura de guitarra  
      
    Intro         Rhythm Fig. 1 
    E|-----------|----------------------------------------------------| 
    B|--8-----8--|----10-------10-------8-----10-------10-------6~~~~-| 
    G|--7-----7--|----7--------7--------7-----7--------7--------7~~~~-| 
    D|-----0-----|-0-----0--0-----0--0-----0-----0--0-----0--0--------| 
    A|-----------|----------------------------------------------------| 
    E|-----------|----------------------------------------------------| 
                                                                   end Fig. 1 
     
    E|-----------3-----------------|----------------------------------| 
    B|-----5-----0-----------6~~~~-|----5-----8--8-----8--------------| 
    G|-----5-----0-----------7~~~~-|----5-----7--7-----7--------------| 
    D|--0-----0-----------0--------|-0-----0--------0-----------------| 
    A|-----------------------------|----------------------------------| 
    E|-----------------------------|----------------------------------| 
     
    Rhythm Fig. 2                                                  end Fig. 2 
    E|-----------3---------------------3--------------------3---------| 
    B|-----5-----0-------6-------5-----0-------6------------3---------| 
    G|-----5-----0-------7-------5-----0-------7-------5----0---------| 
    D|--0-----0-------0-------0-----0-------0-------0--5----0---------| 
    A|----------------------------------------------------------------| 
    E|------------------------------------------------------3---------| 
     
    Rhythm Fig. 3                                                  end Fig. 3 
    E|---------3----------|------------3--------|---------3-----------| 
    B|--3------3----------|-----3------3----6---|----5----3-----------| 
    G|--2------0----------|-----2------0----7---|----5----0-----------| 
    D|--0------0----------|-----0------0--------|-0-------0-----------| 
    A|--------------------|---------------------|---------------------| 
    E|---------3----------|------------3--------|---------3-----------| 
                                                Ending of 2nd Chorus A 
                                              Guitar 2 
                                              E|----------------------| 
                                              B|----------------------| 
                                              G|---------2------------| 
                                              D|---------2------------| 
                                              A|---------0------------| 
                                              E|----------------------| 
    Ending of 2nd Chorus B 
    Guitar 1 
                                              E|---Unison bend--------| 
                                              B|--------10------------| 
                                              G|----12^(14)-----------| 
                                              D|----------------------| 
                                              A|----------------------| 
                                              E|----------------------| 
     
    Rhythm Fig. 4a guitar 2                                        end Fig. 4a 
    E|----------------------------------------------------------------| 
    B|---13~~~~13~~~~----13~~~~13~~~~----0-1-0-3-3----0-1-0-3-3-------| 
    G|---14~~~~14~~~~----14~~~~14~~~~----0-0-0-0-0----0-0-0-0-0-------| 
    D|-----------------------------------0-2-0-0-0----0-2-0-0-0-------| 
    A|----------------------------------------------------------------| 
    E|----------------------------------------------------------------| 
     
     |Rhythm Fig. 4b guitar 3                                      end Fig. 4b 
    E|----------------------------------------------------------------| 
    B|-3---------------2---------------3------------3-----------------| 
    G|-2---------------3---------------0------------0-----------------| 
    D|-0---------------0---------------0------------0-----------------| 
    A|----------------------------------------------------------------| 
    E|---------------------------------3------------3-----------------| 
     
    Solo 1 guitar 1 
    E|----U.B.----U.B.-------U.B.-------U.B.----U.B.------------------| 
    B|------8-------7---------10----------8-------7-------------------| 
    G|-10^(12)--9^(11)----12^(14)----10^(12)--9^(11)--5p0-5p0-5p0-5p0-| 
    D|----------------------------------------------------------------| 
    A|----------------------------------------------------------------| 
    E|----------------------------------------------------------------| 
     |Rhythm Fig. 5 guitar 2 
    E|----------------------------------------------------------------| 
    B|--------------3-----------------------------3-------------------| 
    G|--------------2----------2------------------2---5---------------| 
    D|--------------0----------2------------------0---5---------------| 
    A|-------------------------0----------------------3---------------| 
    E|----------------------------------------------------------------| 
     
      Guitar 1 
    E|-------------------------------------------------U.B.-----------| 
    B|--------------------------------------------------10------------| 
    G|-7p0-7p0-7p0-7p0--5p0-5p0-5p0-5p0-7p0-7p0-7p0-12^(14)-----------| 
    D|----------------------------------------------------------------| 
    A|----------------------------------------------------------------| 
    E|----------------------------------------------------------------| 
     |guitar 2                                                     end Fig. 5 
    E|----------------------------------------------------------------| 
    B|----------------------------------------------------------------| 
    G|-0----------------5---------------0----------------2------------| 
    D|-0----------------5---------------0----------------2------------| 
    A|------------------3--------------------------------0------------| 
    E|-3--------------------------------3-----------------------------| 
     
      Guitar 1 
    E|----U.B.----U.B.--------17---------15-------14---------15-------| 
    B|------8-------7-----20^(22)----18^(20)--17^(19)----15^(17)------| 
    G|-10^(12)--9^(11)-------U.B.-------U.B.-----U.B.-------Bend------| 
    D|----------------------------------------------------------------| 
    A|----------------------------------------------------------------| 
    E|----------------------------------------------------------------| 
      Guitar 1                                                     end Solo 1 
    E|------------------15---------------------------15^(17)----------| 
    B|----13~~~~----15^(17)-------13-15~~~~~~p13--------Bend----------| 
    G|-----------------Bend----------------------14-------------------| 
    D|----------------------------------------------------------------| 
    A|----------------------------------------------------------------| 
    E|----------------------------------------------------------------| 
     
    Outro Solo 
    E|---B------R------B------13----B---------------------------------| 
    B|-13^(15)--^13--13^(15)------13^(15)~~~~~~~~~--------------------| 
    G|----------------------------------------------------------------| 
    D|----------------------------------------------------------------| 
    A|----------------------------------------------------------------| 
    E|----------------------------------------------------------------| 
     
    E|-13^(15)-^13^(15)-^13^(15)^(17)---------------------------10----| 
    B|---B-----R--B-----R--B----B-------------------------------------| 
    G|----------------------------------------------------------------| 
    D|----------------------------------------------------------------| 
    A|----------------------------------------------------------------| 
    E|----------------------------------------------------------------| 
     
    E|-13p10-13p10~~~~-------15-^(17)--13----13-13^(15)---15---B------| 
    B|--------------------------B---------15------B----------18^(20)--| 
    G|----------------------------------------------------------------| 
    D|----------------------------------------------------------------| 
    A|----------------------------------------------------------------| 
    E|----------------------------------------------------------------| 
                                    Hold bend-- 
    E|-15---B-----15---B------------18^(20)-------------------B-------| 
    B|----18^(20)----18^(20)~~~~------B--------15-15^(18)~~-13^(15)---| 
    G|----------------------------------------------H.B.--------------| 
     
    D|----------------------------------------------------------------| 
    A|----------------------------------------------------------------| 
    E|----------------------------------------------------------------| 
     
    E|-13---B-----13---B---------H.B.-----H.B.------------------------| 
    B|----13^(15)----13^(15)---13^(15)--13^(15)-13^(15)---------------| 
    G|----------------------------------------------------------------| 
    D|----------------------------------------------------------------| 
    A|----------------------------------------------------------------| 
    E|----------------------------------------------------------------| 
     
    Guitar 1                                                       end of outro solo 
    E|-20^(22)--------------------------------------------------------| 
    B|---B------18--18^(20)~~~~~--FREE TIME---------------------------| 
    G|----------------------------------------------------------------| 
    D|----------------------------------------------------------------| 
    A|----------------------------------------------------------------| 
    E|----------------------------------------------------------------| 
     |Guitar 2 
     |End of song Fig. 6                                           end of song Fig. 6 
    E|----------------------------------------------------------------| 
    B|-----3----3-------3--------------------------------------3------| 
    G|-----2----0-------0--------------------------------------2------| 
    D|-----0----0-------0--------------------------------------0------| 
    A|----------------------------------------------------------------| 
    E|----------3-------3---------------------------------------------| 
     
    Shake Your Foundations (Young/Young/Johnson) 
    Intro (1x) 
    Rhythm Fig. 1 (2x) 
    Rhythm Fig. 1 w/ Fig. 4a and 4b (2x)) 
    Rhythm Fig. 1 (3x) then play the 1st bar of Fig. 1 
    You gotta see me leanin' on the bar.  I got my head in a whiskey jar. 
    Feelin' good 'cause the city's alive, I'm getting ready to rock and jive. 
    I get up an' I slide across the floor, You wanna come an' I'll meet you at the door. 
    No one can stop us, 'cause we're feelin' too right, We're gonna steal our way 
    Rhythm Fig. 2 (1X) 
    Around tonight.  Alright.  Alright.  Ooh.___ 
    Rhythm Fig. 3 (2x) 
    Aye, aye, oh, Shake your foundations.  Aye, aye, oh, Shake it to the floor. 
    Aye, aye, oh, Shake your foundations.  Aye, aye, oh, Shake it! 
    Rhythm Fig. 1 w/ Fig. 4a and 4b (2x)) 
    Rhythm Fig. 1 (3x) then play the 1st bar of Fig. 1 
    I was takin' no liberties. 
    She's getting' hotter off the heat on me.  I was oilin', she was slick, 
    Lickin' off the sweat on her favorite trick, yeah. Help me, help me, please, yeah. 
    Take this animal, help me to breathe.  I said, "No, no way."  You gotta come with me. 
    Rhythm Fig. 2 (1X) 
    All of the way.  O.K.  I'll play.___ 
    Rhythm Fig. 3 (1x) then 1st 2 bars of Fig. 3 w/ Ending of 2nd Chorus A and B 
    Aye, aye, oh, Shake your foundations.  Aye, aye, oh, Shake it to the floor. 
    Aye, aye, oh, Shake your foundations.  Aye, aye, oh, Shake it to the floor.  Oh! 
    Solo 1 w/ Fig. 5 (2x) 
    Rhythm Fig. 3 (2x) 
    Aye, aye, oh, Shake your foundations.  Aye, aye, oh, Shake it to the floor. 
    Aye, aye, oh, Shake your foundations.  Aye, aye, oh, Shake it! 
    Rhythm Fig. 1 w/ Fig. 4a and 4b (2x)) 
    Rhythm Fig. 1 (3x) then play the 1st bar of Fig. 1 
    We had the night, we had the time.  She had sugar and I had wine. 
    Took my hand, shook me to the core, Told her not touch, but she was 
    Rhythm Fig. 2 (1X) 
    Comin' back for more.  You know what for.  Aye, aye, aye, aye. 
    Rhythm Fig. 3 (3x) w/ Outro solo 
    Aye, aye, oh, Shake your foundations.  Aye, aye, oh, Shake it to the floor. 
    Aye, aye, oh, Shake your foundations.  Aye, aye, oh, Shake it to the floor. 
    Aye, aye, oh, Shake your foundations.  Aye, aye, oh, Shake it to the floor. 
    Last 2 bars of Fig. 3, then the End of the song Fig. 6 
    Aye, aye, oh, Shake your foundations.  Make you so eager. 
    

    Тональность:

    Нет текста!



    Назад
    Рекомендуем посмотреть другие песни исполнителя «AC/DC»:

    • Комментарии Facebook ()
    • Комментарии ВКонтакте



    Добавить в Избранное Браузера
    Сохранить здесь Очистить


    x

    0


    +
    -

    +
    -

    -

    Авторизация





    Зарегистрироваться

    M

    Дата и время

    • 12:44:55
       

    Социальные ссылки


    Наши приложения

    • Muzbank App Play Market
    • Muzbank Amazon App