MUZBANK



A Most Complete Bank Of Music Information

МУЗЫКАЛЬНО-ИНФОРМАЦИОННЫЙ БАНК

Поиск по сайту







    AAC/DC • Tnt (аккорды и текст - chords & lyrics)


    1094

    Print

    Видео «Tnt (AC/DC)»

    Видео клипы к песне подбираются автоматически сайтом youtube. Возможны некоторые несоответствия клипов песне.

    ↑ Спрятать рекламу ↑



    Download


    Intro:
    E|---|
    B|---|
    G|---|
    D|-2-|
    A|-2-|
    E|-0-|
    
    Verse:
    E|-----------------|
    B|-----------------|
    G|-----------------|
    D|-2-x-5-7-x-5-7-5-|
    A|-2-x-5-7-x-5-7-5-|
    E|-0-x-3-5-x-3-5-3-|
    
    Chorus:
    E|-------|
    B|-------|
    G|-------|
    D|-7-5-2-|
    A|-7-5-2-|
    E|-5-3-0-|
    
    Solo:
    E|------------3-2-0-----------------------------12-------|
    B|------------------3-2---0----------------15b~----15-12-|
    G|-2b(HOLD)r------------2---0-----0----------------------|
    D|----------------------------4/5------------------------|
    A|-------------------------------------------------------|
    E|----------------------------------/19⁄-0---------------|
    
    E|-----------------------------------12-------------12----|
    B|----12--------------------------12-12-15p12----------12-|
    G|-12h14-14-14p12-14----12----14b-------------14h16-------|
    E|-------------------14----14-----------------------------|
    B|--------------------------------------------------------|
    G|--------------------------------------------------------|
    
    E|--------------------17b~-|
    B|-15b~--------------------|
    G|-------------------------|
    E|------14-12-14~-14⁄------|
    B|-------------------------|
    G|-------------------------|
    
    Outro:
    E|------------------------------------------------------|
    B|-5b-6b-7b--8b-----------------13b-14b-15b-16b-17b-18b-|
    G|-7b-8b-9b-10b-11b-12b-13b-14b-15b-16b-17b-18b-19b-20b-|
    D|------------------------------------------------------|
    A|------------------------------------------------------|
    E|------------------------------------------------------|
    
    E|------------------------|
    B|-----20b-22b-22b~(FADE)-|
    G|-22b--------------------|
    D|------------------------|
    A|------------------------|
    E|------------------------|
    
    (Intro)
    
    Verse 1:
    See me ride out of the sunset/On your, colour TV screen
    After all that I can get/If you know what I mean
    Women to the left of me/Women to the right
    Ain't got no gun/Ain't got no knife
    Don't you start no fight
    
    Chorus:
    'Cause I'm TNT/I'm dynamite
    TNT/And I'll win the fight
    TNT/I'm a power load
    TNT/Watch me explode
    
    Verse 2:
    I'm dirty, mean, I'm mighty and clean/I'm a wanted man
    Public enemy number one/Understand?
    So lock up your daughter/Lock up your wife
    Lock up your back door/And run for your life
    The man is back in town/Don't you mess me round
    
    Chorus:
    'Cause I'm TNT/I'm dynamite
    TNT/And I'll win the fight
    TNT/I'm a power load
    TNT/Watch me explode
    
    (Solo)
    
    Chorus:
    TNT/TNT/TNT/TNT
    TNT/I'm dynamite
    TNT/And I'll win the fight
    TNT/I'm a power load
    TNT/watch me explode
    

    Тональность:

    Нет текста!



    Назад
    Рекомендуем посмотреть другие песни исполнителя «AC/DC»:

    • Комментарии Facebook ()
    • Комментарии ВКонтакте



    Добавить в Избранное Браузера
    Сохранить здесь Очистить


    x

    0


    +
    -

    +
    -

    -

    Авторизация





    Зарегистрироваться

    M

    Дата и время

    • 22:55:56
       

    Социальные ссылки


    Наши приложения

    • Muzbank App Play Market
    • Muzbank Amazon App