MUZBANK



A Most Complete Bank Of Music Information

МУЗЫКАЛЬНО-ИНФОРМАЦИОННЫЙ БАНК

Поиск по сайту







    AAC/DC • Who Made Who (аккорды и текст - chords & lyrics)


    367

    Print

    Видео «Who Made Who (AC/DC)»

    Видео клипы к песне подбираются автоматически сайтом youtube. Возможны некоторые несоответствия клипов песне.

    ↑ Спрятать рекламу ↑



    Download



    D5 (x577xx) B5 (x244xx) A5 (x02200) D5 Dsus4 (xxx121010)
    ...the Databank
    e ----------------------------------------------------------
    b ----------------------------------------------------------
    g -14-------------------------------------------------------
    D ----⁄-0-4-5-0-7-0-5-0-4-0-5-0-7-0-5-0-4-0-5-0-7-0-5-0-4-0-
    A ----------------------------------------------------------
    E ----------------------------------------------------------
    
    e ----------------------------------------------------------
    b ----------------------------------------------------------
    g ----------------------------------------------------------
    D 5-0-7-0-5-0-4-0-5-0-7-0-5-0-4-0-5-0-7-0-5-0-4-0-5-0-7-0-5-
    A ----------------------------------------------------------
    E ----------------------------------------------------------
    ...year. B5
    T T T T T T T T
    e ----------------------------------------------------------
    b ----------------------------------------------------------
    g ----------------------------------------------------------
    D 0-4-0-5-0-7-0-5-0-----------------------------------------
    A -------------------6-2-7-2-9-2-7-2-6-2-7-2-9-2-7-2-6-2-7-2
    E ----------------------------------------------------------
    A5
    e ----------------------------------------------------------
    b ----------------------------------------------------------
    g ----------------------------------------------------------
    D ----------------------------------------------------------
    A 9-2-7-2-6-2-7-2-9-2-7-0-4-0-5-0-7-0-5-0-4-0-5-0-7-0-5-0-4-
    E ----------------------------------------------------------
    
    e ----------------------------------------------------------
    b ----------------------------------------------------------
    g ----------------------------------------------------------
    D ----------------------------------------------------------
    A 0-5-0-7-0-5-0-4-0-5-0-7-0-5-0-4-0-5-0-7-0-5-0-4-0-5-0-7-0-
    E ----------------------------------------------------------
    D5
    e ----------------------------------------------------------
    b ----------------------------------------------------------
    g ----------------------------------------------------------
    D ------------------------------------4-0-5-0-7-0-5-0-4-0-5-
    A 5-0-4-0-5-0-7-0-5-0-4-0-5-0-7-0-5-0-----------------------
    E ----------------------------------------------------------
    
    e ----------------------------------------------------------
    b ----------------------------------------------------------
    g ----------------------------------------------------------
    D 0-7-0-5-0-4-0-5-0-7-0-5-0-4-0-5-0-7-0-5-0-4-0-5-0-7-0-5-0-
    A ----------------------------------------------------------
    E ----------------------------------------------------------
    
    e ------------------------------------------------|
    b -------------------------------------------------
    g -------------------------------------------------
    D 4-0-5-0-7-0-5-0-4-0-5-0-7-0-5-0-4-0-5-0-7-0-5-0--
    A -------------------------------------------------
    E ------------------------------------------------|
    
    Refrain fig.:
    D Dsus4
    e ---------------------------------------
    b -------3-----------------------3-------
    g ---2----------2-----------2---------2--
    D 4----------------4---5----------------- played 4 times
    A ---------------------------------------
    E ---------------------------------------
    A A7sus4 D/A A Yeah!
    e ----------------------------------------------------------
    b -2----3----3----2------------3---3------2------2--2-------
    g -2----2----2----2------------2---2------2------2--2-------
    D -2----5----4----2------------5---4------2------2--2-------
    A -0----0----0----0------------0---0------0------0--0-------
    E ----------------------------------------------------------
    
    Lyrics:
    
    Who made who
    
    The video game says "Play me"
    Face it on a level but it takes you every time on a one on one
    Feeling running down your spine
    Nothing gonna save your one last dime cause it owns you
    Through and through
    
    The databank knows my number
    Says I gotta pay cause I made the grade last year
    Feel it when I turn the screw
    Kicks you round the world, there ain`t a thing that it can`t do
    Do to you
    
    CHORUS:
    Who made who, who made you?
    Who made who, ain`t nobody told you?
    Who made who, who made you?
    If you made them and they made you
    Who picked up the bill, and who made who? (or who picked up the glue,...)(?)
    
    Who made who, who turned the screw?
    
    Satellites send me picture
    Get it in the eye, take it to the world spinning like a dynamo
    Feel it going round and round
    Running out of chicks, you got no line in the naked town
    So don`t look down, no
    
    CHORUS
    
    Ain`t nobody told you, who made who?
    

    Тональность:

    Нет текста!



    Назад
    Рекомендуем посмотреть другие песни исполнителя «AC/DC»:

    • Комментарии Facebook ()
    • Комментарии ВКонтакте



    Добавить в Избранное Браузера
    Сохранить здесь Очистить


    x

    0


    +
    -

    +
    -

    -

    Авторизация





    Зарегистрироваться

    M

    Дата и время

    • 15:40:28
       

    Социальные ссылки


    Наши приложения

    • Muzbank App Play Market
    • Muzbank Amazon App