MUZBANK



A Most Complete Bank Of Music Information

МУЗЫКАЛЬНО-ИНФОРМАЦИОННЫЙ БАНК

Поиск по сайту







    AAdams Bryan • What Does It Do To Your Heart? (аккорды и текст - chords & lyrics)


    282

    Print

    Видео «What Does It Do To Your Heart? (Adams Bryan)»

    Видео клипы к песне подбираются автоматически сайтом youtube. Возможны некоторые несоответствия клипов песне.

    ↑ Спрятать рекламу ↑



    Download


    Intro Riff
    
    ~ means wiggle the string a bit
    
    Slight Overdrive or Light fuzz Distortion on Lead & Rythem Guitars
    
    
    
    A E F# C#m D E A E 1/4 bends (let Ring at the end)
    -----------------------------------------------------------
    -2/0------2/5-7-9-10-9-7p5h7p5----3b-2-0---0---------------
    ------2-4-------------------------4b-2-1-2-1---------------
    -----------------------------------------------------------
    -----------------------------------------------------------
    -----------------------------------------------------------
    
    
    Verse
    
    
    Rythem Guitar Plays these Chords Strum only once and let ring
    Use a strong Echo (danelectro's slap echo on setting "10" works great)
    Use also a slight Spinning Speaker Effect over the echo to emulate
    that great sound in the song
    
    
    A E
    well, maybe you don't need complications
    F#m C#m
    but this is a simple situation
    D E A E
    there's a chance that this could be the one - yeah
    
    
    Rythem or Lead play this inbetween the first two verses
    
    ----------------------
    -7/10 10-9-9-7-7-5-5--
    ----------------------
    ----------------------
    ----------------------
    ----------------------
    Towards the End of the Second Verse
    more specifically right after "let your feelings go"
    Lead Plays this
    ----------------------
    ----------------------
    -1-2-4~-2-4~----------
    ----------------------
    ----------------------
    ----------------------
    
    Then at the end of the verse just before the first chorus lead plays-
    The ring on last Diad
    -4-4-4-4-5-4-2-4-4----
    -5-5-5-5-5-5-5-5-5----
    ----------------------
    -2--------------------
    ----------------------
    ----------------------
    
    During Chorus Lead plays x2
    ----------------------------------------------
    -10~-9~-7~-5~--3~--2~----0------2/0------2/5~-
    ----------------------1-2-1-2~-------2-4------
    ----------------------------------------------
    ----------------------------------------------
    ----------------------------------------------
    Rythem Plays this
    
    
    A
    what does it do to your heart
    E F#m
    when she hangs on every word you say
    C#m D
    and she's casting every single smile away
    E A
    what does it do to your soul
    E F#m
    when you know that everything she needs
    C#m D
    is simply bein' around the air you breathe
    E A E
    what does it do to your heart
    
    During Verse two lead guitar does one or two very soft insignificant riffs
    that I either couldnt hear or just didnt write down so just improve in the
    key of A major Ionian
    
    Solo- Lead Guitar
    --0/5-5-5-7-5-4-4-4-0/5-5-5-7-5-4-4-5-7/10-9--7-5-7--7/10-10-9--9--7-7-5-7-|
    --------------------------------------7/10-10-9-5-9--7/10-10-10-10-9-9-5-9-|
    ---------------------------------------------------------------------------|
    ---------------------------------------------------------------------------|
    ---------------------------------------------------------------------------|
    ---------------------------------------------------------------------------|
    
    End Riff- Lead Guitar
    --------------------------------------------------------|
    -2/0------2/5-7-9-10-9-7p5h7p5----3b-2-0---0------------|
    ------2-4-------------------------4b-2-1-2-1--1-2-4-1-2-|
    ------------------------------------------------------2-|
    --------------------------------------------------------|
    --------------------------------------------------------|
    

    Тональность:

    Нет текста!



    Назад
    Рекомендуем посмотреть другие песни исполнителя «Adams Bryan»:

    • Комментарии Facebook ()
    • Комментарии ВКонтакте



    Добавить в Избранное Браузера
    Сохранить здесь Очистить


    x

    0


    +
    -

    +
    -

    -

    Авторизация





    Зарегистрироваться

    M

    Дата и время

    • 03:20:29
       

    Социальные ссылки


    Наши приложения

    • Muzbank App Play Market
    • Muzbank Amazon App