MUZBANK



A Most Complete Bank Of Music Information

МУЗЫКАЛЬНО-ИНФОРМАЦИОННЫЙ БАНК

Поиск по сайту







    AAdema • Everyone (аккорды и текст - chords & lyrics)


    279

    Print

    Видео «Everyone (Adema)»

    Видео клипы к песне подбираются автоматически сайтом youtube. Возможны некоторые несоответствия клипов песне.

    ↑ Спрятать рекламу ↑



    Download


     
    
    
    URL: www.angelfire.com/goth/btab/
    	EMAIL: btabmaster@hotmail.com
    
     ----------------------------------------------------------------------------------------------
    
    	     SONG: Everyone
    	     BAND: Adema
    	    ALBUM: Adema
       TRANSCRIBED BY: Chris Frazier (btabmaster@hotmail.com)
    	     DATE: 10-16-01
    
     ----------------------------------------------------------------------------------------------
    
    	TUNING: Drop D and down 2 steps (Bb, F, Bb, Eb, G, C)
    
         Riff 1:
        C |------------------------------------------|
        G |------------------------------------------|
        Eb|------------------------------------------|
        Bb|-7-0-0-0--0--7-0-0-0--0--7-0-0-0--0-2/8-0-|
        F |-7-0-0-0--0--7-0-0-0--0--7-0-0-0--0-2/8-0-|
        Bb|-7-0-0-0--0--7-0-0-0--0--7-0-0-0--0-2/8-0-|
    
         Riff 2:
        C |--------5---|
        G |----------5-|
        Eb|-7/9--------| very hard to hear...
        Bb|------------| just play that w/o delay and hold the 9 for one bar...
        F |------------|
        Bb|------------|
    
         Riff 3:
        C |----------------------------------|
        G |----------------------------------|
        Eb|-2-2-2-2-2-2-3-3------------------|
        Bb|-2-2-2-2-2-2-3-3--3-3-3-0-0-0-1-0-|
        F |-0-0-0-0-0-0-1-1--3-3-3-0-0-0-1-0-|
        Bb|------------------3-3-3-0-0-0-1-0-|
    
         Riff 4:
        C |----------------------------------|
        G |----------------------------------|
        Eb|-2-2-2-2-2-2-3-3------------------|
        Bb|-2-2-2-2-2-2-3-3--3-3-3-3-2-2-1-1-|
        F |-0-0-0-0-0-0-1-1--3-3-3-3-2-2-1-1-|
        Bb|------------------3-3-3-3-2-2-1-1-|
    
         Riff 5a: (rhythm)
        C |-----------------|
        G |-----------------|
        Eb|-----2-2-----3-2-|
        Bb|-----------------|
        F |-0-0-----0-0-----|
        Bb|-----------------|
    
         Riff 5b: (lead, when vocals come in)
        C |-3h5-5--8-6p5-5--3--3h5-5--8-6wd-|
        G |---------------------------------|
        Eb|---------------------------------| wd=slow whammy dive
        Bb|---------------------------------|
        F |---------------------------------|
        Bb|---------------------------------|
    
         Riff 6: (lead for last chorus)
        C |---------------------------------------------------------------------|
        G |---------------------------------------------------------------------|
        Eb|-/14------15-15--10-10-10/7-7-8-7---/12------15-15--10-10-10/9-9/8-8-|
        Bb|--x-------x--x---x--x--x--x-x-x-x----x-------x--x---x--x--x--x-x-x-x-|
        F |-/12------13-13--8--8--8-/5-5-6-5---/12------13-13--8--8--8-/7-7/6-6-|
        Bb|---------------------------------------------------------------------|
    
         Riff 7: (end on)
        C |-----|
        G |-----|
        Eb|-/14-|
        Bb|--x--|
        F |-/12-|
        Bb|-----|
     

    Тональность:

    Нет текста!



    Назад
    Рекомендуем посмотреть другие песни исполнителя «Adema»:

    • Комментарии Facebook ()
    • Комментарии ВКонтакте



    Добавить в Избранное Браузера
    Сохранить здесь Очистить


    x

    0


    +
    -

    +
    -

    -

    Авторизация





    Зарегистрироваться

    M

    Дата и время

    • 16:56:55
       

    Социальные ссылки


    Наши приложения

    • Muzbank App Play Market
    • Muzbank Amazon App