MUZBANK



A Most Complete Bank Of Music Information

МУЗЫКАЛЬНО-ИНФОРМАЦИОННЫЙ БАНК

Поиск по сайту







    AAdema • Immortal (аккорды и текст - chords & lyrics)


    344

    Print

    Видео «Immortal (Adema)»

    Видео клипы к песне подбираются автоматически сайтом youtube. Возможны некоторые несоответствия клипов песне.

    ↑ Спрятать рекламу ↑



    Download



     
    
    
    Tuning:down 2 steps   SOme tabbed this song WRONG
    
    E----------------------------------
    A----------------------------------
    D----------------------------------
    G----------------------------------
    B----------------------------------
    E----19-1919-19-19-19-1919-19p20-17 intro/chorus
    
    E----
    A-7-8
    D-x-x
    G-9-10  towards the end gtr.2 plays this w/wah as filter
    B-----
    E-----
    
    E-0-77-8-8-10-12--0-0-778--8-3-2
    A---xx-x-x-x--x-------xxx--x-5-4
    D---99-101012-14------9910-105-4 pre verse w/dist
    G-------------------------------
    B-------------------------------
    E-------------------------------
    
    E-------------------------
    A-------------------------
    D-------------------------
    G-------------------------
    B-13p12/8-5/8-13-12--8-5p8 w/volume pedal,chorus,and delay
    E-------------------------
    
    Pre chorus
    pm        ..................
    E-9-5-10--555533332222000000--0-1p0-0-1p0-1-0
    A11-7-12-------------------------------------
    D11-7-12-------------------------------------
    G--------------------------------------------
    B-------------------------------------------- Chorus:
    E--------------------------------------------
    
    E-7777777-555555-888888-8-5-7
    A-9999999-777777-10101010-7-9
    D-9999999-777777-10101010-7-9
    G----------------------------
    B----------------------------
    E----------------------------
    
    outro
    
    E-0-0-1-2-00-1-2-00-1-1-2-0
    A-2-2-3-2-00-3-2-22-1-1-4-0
    D-2-2-3------3---22-1-1-4-0
    G--------------------------
    B--------------------------
    E--------------------------
     

    Тональность:

    Нет текста!



    Назад
    Рекомендуем посмотреть другие песни исполнителя «Adema»:

    • Комментарии Facebook ()
    • Комментарии ВКонтакте



    Добавить в Избранное Браузера
    Сохранить здесь Очистить


    x

    0


    +
    -

    +
    -

    -

    Авторизация





    Зарегистрироваться

    M

    Дата и время

    • 04:59:47
       

    Социальные ссылки


    Наши приложения

    • Muzbank App Play Market
    • Muzbank Amazon App