MUZBANK



A Most Complete Bank Of Music Information

МУЗЫКАЛЬНО-ИНФОРМАЦИОННЫЙ БАНК

Поиск по сайту







    AAerosmith • Dream On (аккорды и текст - chords & lyrics)


    1170

    Print

    Видео «Dream On (Aerosmith)»

    Видео клипы к песне подбираются автоматически сайтом youtube. Возможны некоторые несоответствия клипов песне.

    ↑ Спрятать рекламу ↑



    Download



    INTRO:
    Piano/Harpsichord/Whatever (arranged for guitar)
    
    e|-4-----4----|-3-----3----|-4-----4----|-3-----3----|
    B|-6-----6----|-4-----4----|-3-----3----|-2-----2----|
    G|----5-----5-|----5-----5-|----5-----5-|----5-----5-|
    D|------------|------------|------------|------------|
    A|------------|------------|------------|------------|
    E|------------|------------|------------|------------|
    
    E|-4-----4----|-6-----6----|--8-----8----|--8--------|
    B|-6-----6----|-8-----8----|--9-----9----|--9--------|
    G|----5-----5-|----5-----5-|-------------|-----------|
    D|------------|------------|----10----10-|-----------|
    A|------------|------------|-------------|-----------|
    E|------------|------------|-------------|-----------|
    
    E|-4-----4----|-3-----3----|--4-----4----|-3-----3----|
    B|-6-----6----|-4-----4----|--3-----3----|-2-----2----|
    G|----5-----5-|----5-----5-|-----5-----5-|----5-----5-|
    D|------------|------------|-------------|------------|
    A|------------|------------|-------------|------------|
    E|------------|------------|-------------|------------|
    
    E|-4-----4----|-6-----6----|--8-----8----|-6-4-----6--|
    B|-6-----6----|-8-----8----|--9-----9----|-8-6-----8--|
    G|----5-----5-|----5-----5-|-------------|-------5----|
    D|------------|------------|----10----10-|------------|
    A|------------|------------|-------------|------------|
    E|------------|------------|-------------|------------|
    
    E|--8-----8----|-6-4------4-|-3-----3----|-3-----3----|
    B|--9-----9----|-8-6------6-|-2--1--2--1-|-2--1--2--1-|
    G|-----7-----7-|-------7----|------------|------------|
    D|-------------|------------|------------|------------|
    A|-------------|------------|------------|------------|
    E|-------------|------------|------------|------------|
    
    E|-3-------3-------|-3-------3------|-3-----------3-------|--3-|
    B|-2---1---2---1---|-2---1---2----1-|-2-----1-----2-----1-|--2-|
    G|-----------------|----------------|---------------------|----|
    D|-----------------|----------------|---------------------|----|
    A|-----------------|----------------|---------------------|----|
    E|-----------------|----------------|---------------------|----|
      (Guitar)
    E|---------------|-------------------|----------------------|--|
    B|----------5-6/8|6-8/9-8-9/11-9h11p9|8h9p8-6h8p6-4h6p4-----|--|
    G|6p5-3-5h6------|-------------------|------------------6-5/|17|
    D|---------------|-------------------|----------------------|--|
    A|---------------|-------------------|----------------------|--|
    E|---------------|-------------------|----------------------|--|
    
    This basic form repeats during the verse, until the "Isn`t that
    the way" line, when we have:
    
    E|-4-----4----|-3-----3----|-4-----4----|-3-----3----|
    B|-6-----6----|-5-----5----|-6-----6----|-6-----6----|
    G|----5-----5-|----5-----5-|----5-----5-|----5-----5-|
    D|------------|------------|------------|------------|
    A|------------|------------|------------|------------|
    E|------------|------------|------------|------------|
    
    E|-3-----3----|-3-----3----|-3-----3----|-3-----3----|
    B|-2--1--2--1-|-2--1--2--1-|-2--1--2--1-|-2--1--2--1-|
    G|------------|------------|------------|------------|
    D|------------|------------|------------|------------|
    A|------------|------------|------------|------------|
    E|------------|------------|------------|------------|
    
    SOLO:
    
    E|---4-----4-----6-|-----6-----6-----|-8-----8-----8/--|-13-|
    B|-----6-----6-----|-6-----6-----6---|---6-----6-------|----|
    G|-5-----5-----5---|---5-----5-----5-|-----5-----5-----|----|
    D|-----------------|-----------------|-----------------|----|
    A|-----------------|-----------------|-----------------|----|
    E|-----------------|-----------------|-----------------|----|
    
    E|-8-----8---------|---8-------------|-------8---------|-----|
    B|-----6-----6-----|-6-----6---6-----|-6---6---6---8---|-8b9-|
    G|-----------------|-----------------|-----------------|-----|
    D|-----------------|-----------------|-----------------|-----|
    A|-----------------|-----------------|-----------------|-----|
    E|-----------------|-----------------|-----------------|-----|
    
    E|---4-----4-----4-|-----6-----6-----|-8-----8-----8/--|-13-|
    B|-----------6-----|-6-----------6---|---6-----6-------|----|
    G|-5-----------5---|---5-----5-----5-|-----5-----5-----|----|
    D|-----------------|-----------------|-----------------|----|
    A|-----------------|-----------------|-----------------|----|
    E|-----------------|-----------------|-----------------|----|
    
    E|-8-----8---------|---8-------------|
    B|-----6-----6-----|-6-----6---6-----|
    G|-----------------|-----------------|
    D|-----------------|-----------------|
    A|-----------------|-----------------|
    E|-----------------|-----------------|
    
    FILL 1 [1:31]
    E|-----------------|-----------------|
    B|-----------------|-----------------|
    G|-------------1---|-----------------|
    D|---------1-3---3-|-(hold note)-----|
    A|-----1-3---------|-----------------|
    E|-1-4-------------|-----------------|
    
    FILL 2 [2:10, 2:49, 4:00]
    E|---------------|---------------|---------------|-------------|
    B|---------------|---------------|---------------|-------------|
    G|-5-------------|-5-------------|-5-------------|-5-3-3-3-3---|
    D|---3-3-3-3-----|---5-5-5-5-----|---6-6-6-6-----|-------------|
    A|---------------|---------------|---------------|-------------|
    E|---------------|---------------|---------------|-------------|
    
    FILL 3 [2:55]
    E|-------------------------|-------------------------|
    B|-------------------------|-------------------------|
    G|--------------8`---------|--8-8b-----8-10-p8-----8-|
    D|-10-----------------10---|-------10----------10----|
    A|-------------------------|-------------------------|
    E|-------------------------|-------------------------|
    
    E|--------8----------------|-------------------------|
    B|-----------8-11-p8-------|-----------------8-11B---|
    G|-10b12-------------10-p8-|--------8-10-10B---------|
    D|-------------------------|----10-------------------|
    A|-------------------------|-------------------------|
    E|-------------------------|-------------------------|
    
    FILL 4 [3:07]
    E|--------------------------|----------------------|
    B|-16b18--------16b18-------|-16b18-------16b18----|
    G|--------------------------|----------------------|
    D|--------------------------|----------------------|
    A|--------------------------|----------------------|
    E|--------------------------|----------------------|
    
    E|--------------------------|----------------------|
    B|-16B-16----13-------------|----------------------|
    G|--------------15----13----|----------------------|
    D|-----------------------15-|----13----------------|
    A|--------------------------|-------15-14-13-11----|
    E|--------------------------|-------------------13-|
    
    FILL 5 [3:19]
    E|-------------|---------------|----------4-4--|-4-6-6-6-6-6-6-|
    B|-------------|------------4--|6-4-4---6-----6|---(full bend)-|
    G|----------1--|3-1---1-3/5---5|------5--------|---------------|
    D|3-1---1-3---3|----3----------|---------------|---------------|
    A|----3--------|---------------|---------------|---------------|
    E|-------------|---------------|---------------|---------------|
    

    Тональность:

    Нет текста!



    Назад
    Рекомендуем посмотреть другие песни исполнителя «Aerosmith»:

    • Комментарии Facebook ()
    • Комментарии ВКонтакте



    Добавить в Избранное Браузера
    Сохранить здесь Очистить


    x

    0


    +
    -

    +
    -

    -

    Авторизация





    Зарегистрироваться

    M

    Дата и время

    • 05:00:12
       

    Социальные ссылки


    Наши приложения

    • Muzbank App Play Market
    • Muzbank Amazon App