MUZBANK



A Most Complete Bank Of Music Information

МУЗЫКАЛЬНО-ИНФОРМАЦИОННЫЙ БАНК

Поиск по сайту







    AAerosmith • Dude Looks Like A Lady (аккорды и текст - chords & lyrics)


    235

    Print

    Видео «Dude Looks Like A Lady (Aerosmith)»

    Видео клипы к песне подбираются автоматически сайтом youtube. Возможны некоторые несоответствия клипов песне.

    ↑ Спрятать рекламу ↑



    Download



    Intro:
    
    A5
    |--------------------------------|
    |--------------------------------|
    |-9--9----9--9----9--9----9--9---|
    |-7--7----7--7----7--7----7--7---|
    |--------------------------------|
    |--------------------------------|
    
    A5 G5 A5 D5 G5 D5
    |------------------------------------------| Repeat this Riff
    |-10-10-10--8-8--10--7-7-7-7-8-7-----------| 4X, until the horns
    |--9--9--9--7-7---9--7-7-7-7-7-7-----------| start, then repeat
    |--7--7--7--5-5---7--7-7-7-7-7-7-----------| this 4 more times.
    |------------------------------------------|
    |------------------------------------------|
    Dude Look like a lady
    
    A5 G5 A5 F5
    |------------------------------------------------------------|
    |-10-10-10--8--8---8--10------6------------------------------|
    |--9--9--9--7--7---7---9------5------------------------------|
    |--7--7--7--5--5---5---7------3------------------------------|
    |------------------------------------------------------------|
    |------------------------------------------------------------|
    Baby let me follow you down. Let me take a peak dear.
    
    Right before the solo it goes like this...
    
    D5 C5 D5 E5 G5
    Baby let me follow you down.. Do me, do me, do me, sue me.
    
    
    Angel
    by: Aerosmith
    INTRO:
    Eb5 Bb5 Ab5 Bb5 Eb5 Bb5 Ab5
    Bb5 Eb5 Bb5 Ab5 Bb5 C5 Bb5 Ab5 (Absus4 Ab)
    (*Look at the timing note at the end if this looks confusing.)
    
    VERSE 1:
    Eb Ab
    Absus4 Ab
    I'm alone. And, I don't know if I can face the night.
    Eb Cm Gm Ab
    I'm in tears and the cryin' that I do is for you.
    Bb5 C5 Ab5
    I want your love. Let's break the walls between us.
    Bb5 C5 Ab5
    Don't make it tough. I'll put away my pride.
    Bb5 C5 Ab5 Bb5
    Enough's enough. I've suffered and I've seen the light.
    (Baby)
    
    CHORUS:
    Bb5 Eb5 Bb5 Ab5 Bb5 C5 Bb5 Ab5
    You're my ang el. Come and save me tonight.
    Bb5 Eb5 Bb5 Ab5 Bb5 C5 Bb5 Ab5
    You're my ang el. Come and make it all right.
    (Absus4 Ab)
    
    VERSE 2:
    Don't know what I'm gonna do about this feeling inside.
    Yes, it's true. Loneliness took me for a ride.
    Without your love I'm nothing but a beggar.
    Without your love a dog without a bone.
    What can I do? I'm sleepin' in' this bed alone.
    (Baby)
    
    CHORUS:
    Bb5 Eb5 Bb5 Ab5 Bb5 C5 Bb5 Ab5
    You're my ang el. Come and save me tonight.
    Bb5 Eb5 Bb5 Ab5 Bb5 C5 Bb5 Ab5
    You're my ang el. yeah, come and make it all right.
    Bb5 Eb5
    Come and save me to - night.
    
    CHORDS FOR THE SOLO:
    Eb5 Bb5 Ab5 Bb5 C5 Bb5 Ab5
    Bb5 Eb5 Bb5 Ab5 Bb5 C5 Bb5 Ab5 Bb
    
    THE TAB FOR THE SOLO:
    Eb5 Bb5 Ab5
    Bb5
    e|-----------------------------------------------------------|
    b|-----------------------------------------------------------|
    g|---------13------------------------------------------------|
    d|--13^17---17--15^17^15-13-------13-------------------|
    a|-------------------------------13^15---15--13-11-10-8--|
    E|-----------------------------------------------------------|
    
    C5 Bb5 Ab5 Bb5 Eb5
    e|--------------------------------------------------------------|
    b|-----------------------11b(13)r11---------------------------|
    g|--------------8^10^8--------------10b(12)--10b(12)r10^8-|
    d|---------8/10------------------------------------------------|
    a|--6-8/10-----------------------------------------------------|
    E|--------------------------------------------------------------|
    
    Bb5 Ab5
    Bb5
    e|--------------------------------------------------------------|
    b|--------------------------------------------------------------|
    g|---------8-8--------------------8-8--------------10^8------|
    d|--8^10-------------8-8--8^10-------------8-8---------10--|
    a|--------------8^10-------------------8^10------------------|
    E|-------------------------------------------------------------|
    C5
    Bb5
    e|-----------------------------------------------------------|
    b|-----------------11--11----------------------------------|
    g|--10b(11)r10^8--------10b(12)----(12)r10^8-10b(12)--|
    d|-----------------------------------------------------------|
    a|-----------------------------------------------------------|
    E|-----------------------------------------------------------|
    
    
    Ab5
    Bb
    e|-------------------------------------------------11-13-----|
    b|----------------------------------11-11⁄13-13-------------|
    g|--10b(12)-10-8-----8-10⁄12-12---------------------------|
    d|-----------------10-----------------------------------------|
    a|-------------------------------------------------------------|
    E|------------------------------------------------------------|
    
    BRIDGE:
    Bb Ab Eb
    You're the reason I live. You're the reason I die. You're the
    Cm Ab
    reason I give when I break down and cry. Don't need no reason
    Bb
    why.
    
    CHORUS:
    Bb5 Eb5 Bb5 Ab5
    Baby, baby, bayayby. You're my ang el. Come and save me
    Bb5 C5 Bb5 Ab5 Bb5 Eb5 Bb5 Ab5 Bb5 C5
    tonight. You're my ang el. Yeah, come and make it
    alright.
    Bb5 Ab5 Bb5 Eb5 Bb5 Ab5 Bb5 C5 Bb5 Ab5
    
    You're my ayayayayn geyel. Come and save me tonight.
    Bb5 Eb5 Bb5 Ab5 Bb5 C5 Bb5 Ab5
    You're my ang el. Come and make it alright. Come and
    Bb5 Eb5 Bb5 Ab5
    save me tonight. Come and save me tonight. Come and save me
    Bb5 C5 Bb5 Ab5 Bb5 Eb5
    tonight. Come and save me tonight. Come and save me tonight.
    
    OUTRO:
    Bb5 Ab5 Bb5 C5 Bb5 Ab5 Bb5 Eb5 (etc.)
    
    *Note: To get the timing correct, I suggest listening to the album,
    however, the progression below should give you an idea...
    Eb5 Bb5 Ab5 Bb5 C5 Bb5 Ab5 Bb5
    e|------------|------------|-------------|-------------|
    b|------------|------------|-------------|-------------|
    g|------------|------------|-------------|-------------|
    d|--8---------|------------|-------------|-------------|.
    a|--6-------8-|-6-------8-|-10-------8-|-6--------8-|
    E|----------6-|-4-------6-|--8-------6-|-4--------6-|
    1 & 2 & 1 & 2 & 1 & 2 & 1 & 2 &
    

    Тональность:

    Нет текста!



    Назад
    Рекомендуем посмотреть другие песни исполнителя «Aerosmith»:

    • Комментарии Facebook ()
    • Комментарии ВКонтакте



    Добавить в Избранное Браузера
    Сохранить здесь Очистить


    x

    0


    +
    -

    +
    -

    -

    Авторизация





    Зарегистрироваться

    M

    Дата и время

    • 19:44:39
       

    Социальные ссылки


    Наши приложения

    • Muzbank App Play Market
    • Muzbank Amazon App