MUZBANK



A Most Complete Bank Of Music Information

МУЗЫКАЛЬНО-ИНФОРМАЦИОННЫЙ БАНК

Поиск по сайту







    AAerosmith • Hangman Jury (tab) (аккорды и текст - chords & lyrics)


    205

    Print

    Видео «Hangman Jury (tab) (Aerosmith)»

    Видео клипы к песне подбираются автоматически сайтом youtube. Возможны некоторые несоответствия клипов песне.

    ↑ Спрятать рекламу ↑



    Download


     intro(acoustic)-
        E---------------------------------------------------|
        B-------------------0-------------------------------|
        G-------------------0--------------------------5----|
        D---0------------0--0------0---------------3b-----3r|
        A------3p0----------------------------3p0-----------|
        E-----------3p0---------------0--3p0----------------|
     
        E---------------------------------------------------|
        B---------------------------------------------------|
        G---------------------------------------------------|
        D---0-----3b-r--0-------0-----------------0---------|
        A------0-----------3br----------5p3p0--0------------|
        E--------------------------------------------3br--0-|
     
        E---------------------------------------------------|
        B--------------------------------------0------------|
        G--------------------------------------0------------|
        D--------------3b-----0-------------0--0------------|
        A---------3p0------------3p0------------------------|
        E----3p0----------------------3p0-------------------|
     
        E---------------------------------------------------|
        B---------------------------------------------------|
        G---------------------------------------------------|
        D---0-------------------5---------0-----3b-r--3b-r-0|
        A--------------3p0--3b-----3r--------0--------------|
        E------0--3p0---------------------------------------|
                                      "heh"(Steven)
        E---------------------------------------------------|
        B---------------------------------------------------|
        G---------------------------------------------------|
        D-----0--------------------3b-----------------------|
        A--3------------------3p0---------------------------|
        E-------------0--3p0--------------------------------|
                                                             
     
     riff:
                                                             
        E---------------------------------------------------|
        B---------------------------------------------------|
        G---------------------------------------------------|
        D----------------------0-----------------3b-0----0--|
        A--x-x-7p5---x-x-5p3------3--x-x-3p2--3--------3----|
        E---------------------------------------------------|
     
    
    
     
     symbols used in transcription:
     p = pull-off
     b = bend 
     r = release
     x = make percussive sound with fretting hand   
     
     Permanent Vacation version
      Drop D tuning. 
        intro-                                 |--PM-|
        E--------------------------------------------------|
        B--------------------------------------------------|
        G--------------------------------------------------|
        D------------3-b-----0---------0-------------------|
        A------3p0-------------3p0-------------------------|
        D--0h3-----3---------------3p0---(0)----0-0-0--3p0-|
     
        E----------------------------------------------------------|
        B----------------------------------------------------------|
        G--------3-------------------------------------------------|
        D-----3b---3r--0-----3b--0---0-------0--0-----0------3p0---|
        A-3p0------------3p0-------3---------------------3p0-------|
        D--------------------------------0h3------0h3--------------|
     
        E----------------------------------------------------------|
        B----------------------------------------------------------|
        G-------------3--------------------------------------------|
        D----------3b---3-r--------------0------3-b--r-0---------0-|
        A-----3p0-------------5-3p0---------3p0----------3p0-------|
        D-0h3-----------------------3p0----------------------3p0---|
     
        E----------------------------------------------------------|
        B----------------------------------------------------------|
        G----------------------------------------------------------|
        D-------0-------3b------0-----3b--0-------0------3-0---0---|
        A----------3p0------------3p0----------------3h5-----3-----|
        D--0-3-------------------------------3p0-------------------|
     
        E----------------------------|
        B----------------------------|
        G----------------------------|
        D-0-5b--r-0---------0--------|
        A------------3-0-------------|
        D----------------3-----3-0---| 
        
        riff 1-
        E-----------------------------------------------------|
        B-----------------------------------------------------|
        G-----------------------------------------------------|
        D----------------------------------0-0------0---------|
        A----x-7p5-----x-5p3--3-----x-3p2--------------3p0-0--|
        D--0---------0------------0-------------0h3-----------|
     
    it`s played on an electric guitar:
        riff 2-
        E------------------------------------------------------------|
        B--------1--------------3--------------5------------5------6-|
        G------0---(0---------0---(0---------0---(0------------------|
        D----0--------0)----3--------3)----5--------5)---------------|
        A--2--------------2--------------4---------------6------7----|
        D------------------------------------------------------------|
    
     
     Before the next riff, both guitars play this(w/distortion):
     
        E-------------------------------|
        B-------------------------------|
        G-------------------------------|
        D-------------------------------|
        A--7-7-9-7--7-7-9-7--7-7-9-7-7--|
        D--5-5-5-5--5-5-5-5--5-5-5-5-5--|
        
        riff 3(electric guitar w/distortion)-
        E---------------------------------------------|
        B---------------------------------------------|
        G------9p7-------7p5--------5p4---------------|
        D--0h7-------0h5--------0h4------0------------|
        A-----------------------------------0h5--0h5--|
        D---------------------------------------------|
     
     
        riff 4-
        E--------------------------------------------------|
        B--------------------------------------------------|
        G--------------------------------------------------|
        D--------------------------------------------------|
        A--7-7-9-7---3-3-5-3--10-10-12-10--10-10-12-10-----|
        D--5-5-5-5---1-1-1-1---8--8--8--8---8--8--8--8-----|
     
     
     Symbols used in transcription:
     h = hammer-on
     p = pull-off
     b = bend
     r = release
     x = percussive noise made with fretting hand
     (0) = barely audible 

    Тональность:

    Нет текста!



    Назад
    Рекомендуем посмотреть другие песни исполнителя «Aerosmith»:

    • Комментарии Facebook ()
    • Комментарии ВКонтакте



    Добавить в Избранное Браузера
    Сохранить здесь Очистить


    x

    0


    +
    -

    +
    -

    -

    Авторизация





    Зарегистрироваться

    M

    Дата и время

    • 11:40:48
       

    Социальные ссылки


    Наши приложения

    • Muzbank App Play Market
    • Muzbank Amazon App