MUZBANK



A Most Complete Bank Of Music Information

МУЗЫКАЛЬНО-ИНФОРМАЦИОННЫЙ БАНК

Поиск по сайту







    AAerosmith • Livin On The Edge (btab) (аккорды и текст - chords & lyrics)


    281

    Print

    Видео «Livin On The Edge (btab) (Aerosmith)»

    Видео клипы к песне подбираются автоматически сайтом youtube. Возможны некоторые несоответствия клипов песне.

    ↑ Спрятать рекламу ↑



    Download


     
    
    
    5-string bass (5th string tuned to low-B)
     
     (you can also play it in dropped-D tuning on a 4 string)
     
     
     Verse
       D                                  B                            A
     ----------||
     ||*------------------------------*||
     ----------||
     ||*------------------------------*||
     ----------||
     
     Chorus
       D
       2nd time
       (Bb/D)            (G/D)            (D)
     ----------||
     ||*------------------------------*||
     ----------||
     ||*------5/10-----|------5/10-----|------5/10-----|------5/10----*||
     ||-3---------------|3---------------|3---------------|3---------------||
     
     Verse
      D                                 B                            A
     --------------------|
     --------------------|   
     ----------|2-----2-2-------|2-----2-2--/12--|
     |------5/10-----|------5/10--------2------|
     |3---------------|3-------------------------|   
     
      D
     ----------|
     ----------|
     ----------|
     |------5/10-----|------5/10-----|
     |3---------------|3---------------|
     
       B                            A
     --------------------------|
     --------------------------|
     |2-----2-2---2-2-|2------/12/12/12/12R--------|
     --------------------------|
     --------------------------|
     
     Chorus
      D
     --------------------|
     --------------------|
     --------------------|
     |------5/10--10-|------5/10--10-|------5/10--5---|------5/10--10-|
     |3---------------|3---------------|3---------------|3---------------|
     
      Bb/D             G/D              D
     --------------------|
     --------------------|   
     --------------------|
     |------5/10--10-|------5/10--10-|------5/10--1010|10101010101010X|
     |3---------------|3---------------|3--------------------|
     
     Bridge
      (F#)                              (B)
     --------------------|
     --------------------|   
     0----0----5----|---------5------|
     |2-2-2-2-012--20-|2-2-2-2-012--20-|7-7-7-7-567--75-|7-7-7-7-7-7-575-|
     --------------------|   
     
      (F#)                              G                A
     --------------------|
     ----------|----5-------5---|----7-------7---|
     0----0----|--5---5---5---5-|--7---7---7---7-|
     |2-2-2-2-012--20-|2-2-2-2-012--20-|3-------3-------|5-------5-------|
     --------------------|
     
                                        Solo
      Bb                                D                         (4 times)
     ----------||
     |----8-8-----8-8-|----8-8-----8-8-||*--------------------*||
     ----------||
     |6-6-----6-6-----|6-6-----6-6-----||*--------------------*||
     ----------||-3-----3-3-----3-|3-----3-3---3---||   
     
      Bb               G                F                D
     --------------------|
     ----------|--3---3---3---3------|
     |1-1-1-1-1-1-1-1-----------|----5-5-----5-5-|
     -----|3-3-3-3-3-3-3-3-|1---1---1---1--------|
     ---------------|3-3-----3-3-----|
     
                                        (F#)
     --------------------------------|
     --------------12----------------|
     ----------------10----0----0----|
     |/101010101010101010101010----12-|2-2-2-2-012--20-|2-2-2-2-012--20-|
     --------------------------------|
     
      (B)                               (F#)
     --------------------|
     --------------------|
     5----5----0----0----|
     |7-7-7-7-567--75-|7-7-7-7-567--75-|2-2-2-2-012--20-|2-2-2-2-012--20-|
     --------------------|
     
     
     --------------------|
     |----5-------5---|----7-------7---|----8-8-----8-8-|----8-8-----8-8-|
     |--5---5---5---5-|--7---7---7---7-----------|
     |3-------3-------|5-------5-------|6-6-----6-6-----|6-6-----6-6-----|
     --------------------|
     
      D
     --------------------|
     --------------------|
     --------------------|
     |----10-----10-|----10-----10-|----10-----10-|----10-----10-|
     |3/------3/------|3/------3/------|3/------3/------|3/------3/------|
     
      B
     ------------------------------------------|
     ------------------------------------------|
     -------------------------R----------------|
     |2---2---2---2--/14/14/14/14/|14/14/14/14-----------------|
     ------------------------------------------|
     
                                      (bass drum)
                                       X       X       X       X
     ------------------------------------------|
     ------------------------------------------|
     |R----------------------------------------------------|
     ------------------------------------------|
     ------------------------------------------|
     
     Outro
      D                                    Bb               G           F
     |----------|
     ||*--------------------*|----------|
     |----------|
     ||*------5/10-----|------5/10----*||6-6-6-6-6-6-6-6-|3-3-3-3-3-3-1---|
     ||-3---------------|3---------------|----------|
     
      D                                 Bb               A
     --------------------|
     --------------------|
     --------------------|
     |------5/10-----|------5/10-----|6-6-6-6-6-6-6-6-|5-5-5-5-5-5-5-5-|
     |3---------------|3-------------------------|
     
      G                F                E                Eb
     --------------------|
     --------------------|
     --------------------|
     |3-3-3-3-3-3-3-3-|1-1-1-1-1-1-1-1-----------|
     ----------|5-5-5-5-5-5-5-5-|4-4-4-4-4-4-4-4-|
     
                       D
     --------|
     --------|
     --------|
     --------|
     |4-4-4-4-4-4-4-4-|3-----------|(3)---------|(3)---------|(3)--------|
     
      Bb               G           F    D
     --------------------|
     --------------------|
     --------------------|
     |6-6-6-6-6-6-6-6-|3-3-3-3-3-3-1---|------5/10------|------5/10------|
     ----------|3---------------|3---------------|
     
      Bb               G/B         F    D
     --------------------|
     --------------------|
     --------------------|
     |6-6-6-6-6-6-6-6-|7-7-7-7-7-7-1---|------5/10------|-------5/10-----|
     ----------|3---------------|3---------------|
     
      Bb               G/B         F    D
     --------------------|
     --------------------|
     --------------------|
     |6-6-6-6-6-6-6-6-|7-7-7-7-7-7-1---|----10-/10--10--|----10-/10--10--|
     ----------|3---------------|3---------------|
     
      Bb               A                G                F
     --------------------|
     --------------------|
     --------------------|
     |6-6-6-6-6-6-6-6-|5-5-5-5-5-5-5-5-|3-3-3-3-3-3-3-3-|1-1-1-1-1-1-1-1-|
     --------------------|
     
      E                Eb                                D
     --------------------|
     --------------------|
     ----------|6---6---6---6--------|
     --------------------|
     |5-5-5-5-5-5-5-5-|4-4-4-4-4-4-4-4-|--4---4---4---4-|3---------------|
     
     
     --------|----------||
     --------|----------||
     --------|----------||
     --------|----------||
     |(3)----------|(3)----------|(3)----------|3------------|(3)-------||
     

    Тональность:

    Нет текста!



    Назад
    Рекомендуем посмотреть другие песни исполнителя «Aerosmith»:

    • Комментарии Facebook ()
    • Комментарии ВКонтакте



    Добавить в Избранное Браузера
    Сохранить здесь Очистить


    x

    0


    +
    -

    +
    -

    -

    Авторизация





    Зарегистрироваться

    M

    Дата и время

    • 17:34:15
       

    Социальные ссылки


    Наши приложения

    • Muzbank App Play Market
    • Muzbank Amazon App