MUZBANK



A Most Complete Bank Of Music Information

МУЗЫКАЛЬНО-ИНФОРМАЦИОННЫЙ БАНК

Поиск по сайту







    AAerosmith • The Hop (аккорды и текст - chords & lyrics)


    251

    Print

    Видео «The Hop (Aerosmith)»

    Видео клипы к песне подбираются автоматически сайтом youtube. Возможны некоторые несоответствия клипов песне.

    ↑ Спрятать рекламу ↑



    Download



     -Intro
    
     Starts with song drums
    
    e|-------------------------------|
    b|-------------------------------|
    g|--------------4--------------7-|
    d|----4-7--4----4----4-7--4----7-|
    a|-5---------5-----5--------5----|
    e|-------------------------------|
    
    e|-------------------------------|
    b|-------------------------------|
    g|--------------9----9--9--7-----|
    d|----4-7--4----9----9--9----9-9-|
    a|-5---------5-------------------|
    e|-------------------------------|
    
    - verse
    
    e|------------------|
    b|------------------|
    g|--------------4---| play 4 times
    d|----4-7--4----4---| then play this...
    a|-5---------5------|
    e|------------------|
    
    e|------------------|
    b|------------------|
    g|----------------9-| play this 4 times
    d|----9-12--9-----9-|
    a|-10---------10----|
    e|------------------|
    
    Repeat the whole verse until it goes to the 2nd
    "Can`t stop a rockin` tonight" part were you play
    
    e|------------------|
    b|------------------|
    g|-4---4---4---4--6-|
    d|-------7---7------|
    a|------------------|
    e|------------------|
    
     That leads to the solo that goes...
    
    e|---------------------------12--10----12-|
    b|-9--9--9--9--9--9--9---12---------12----|
    g|----------------------------------------|
    d|----------------------------------------|
    a|----------------------------------------|
    e|----------------------------------------|
    
    e|-12-10-----12--12-10------12---12-10----|
    b|-------12-------------12-------------12-|
    g|----------------------------------------|
    d|----------------------------------------|
    a|----------------------------------------|
    e|----------------------------------------|
    
    e|----------------------------------------|
    b|--12--12-12--12-12--12-12--12-12--12-12-|
    g|----------------------------------------|
    d|----------------------------------------|
    a|----------------------------------------|
    e|----------------------------------------|
    
    e|-----------------------15-16------15-16-|
    b|-12-12--12-12--12--17--15-----17--15----|
    g|----------------------------------------|
    d|----------------------------------------|
    a|----------------------------------------|
    e|----------------------------------------|
    
    e|----15-16----15-16------15-16-----15-16-|
    b|-17-15----17-15-----17--15-----17-15----|
    g|----------------------------------------|
    d|----------------------------------------|
    a|----------------------------------------|
    e|----------------------------------------|
    
    e|-----15-16------15-16-|
    b|-17--15-----17--15-15-|
    g|----------------------|
    d|----------------------|
    a|----------------------|
    e|----------------------|
    
     Repeat the intro then play the bridge
    
       Lyin` on my back tonight I watch her moon...
    e|--10---10------------10----------------------|
    b|----------12--12--12-----12--12---12--12--12-|
    g|---------------------------------------------|
    d|---------------------------------------------|
    a|---------------------------------------------|
    e|---------------------------------------------|
    
      I may be eatin` out tonight but I just ain`t...
    e|------------------------10---------------------|
    b|--12--12-12-12--12--12------12-12-10-10-10--12-|
    g|-----------------------------------------------|
    d|-----------------------------------------------|
    a|-----------------------------------------------|
    e|-----------------------------------------------|
    
    repeat the same guitar part with different lyrics.
    
    Then theres song little guitar solo, an amazing
    harmonica solo, and another little guitar solo.
    
    The lyrics go...
    
    Thinkin` about the night life in the ladies powder room
    My brothers like a howlin` wolf by
    the light of the silvery room
    Joey`s like a Pavlov`s dog when he starts to lasivate
    A harley man gets off his hog to shake his rattle snake
    
    Chorus-
    
    And me I got a brand new band
    you know something just ain`t right
    Say Yeah, Yeah, can`t stop rockin` tonight.
    
    Hangin` at the Shopin` mall with a wise mouthfull of sass
    Leave your smile outside the door
    `cause the kids been kickin` ass
    My own boot heels be smockin` ya really got to understand
    Were burnin` down the town tonight
    when our new shit hits the fan
    
         Chorus
    
         Solo
    
    Livin` on my back tonight I watched her moon eclipse
    I may be eatin` out tonight but I just ain`t leavin` tips
    So you best watch out what you do and a who you do it with
    `Cause you all be kickin` ass tonight with the boys in Aerosmith
    
    That is all....
    

    Тональность:

    Нет текста!



    Назад
    Рекомендуем посмотреть другие песни исполнителя «Aerosmith»:

    • Комментарии Facebook ()
    • Комментарии ВКонтакте



    Добавить в Избранное Браузера
    Сохранить здесь Очистить


    x

    0


    +
    -

    +
    -

    -

    Авторизация





    Зарегистрироваться

    M

    Дата и время

    • 21:42:09
       

    Социальные ссылки


    Наши приложения

    • Muzbank App Play Market
    • Muzbank Amazon App