MUZBANK



A Most Complete Bank Of Music Information

МУЗЫКАЛЬНО-ИНФОРМАЦИОННЫЙ БАНК

Поиск по сайту







    AAeternus • Ild Dans (аккорды и текст - chords & lyrics)


    252

    Print

    Видео «Ild Dans (Aeternus)»

    Видео клипы к песне подбираются автоматически сайтом youtube. Возможны некоторые несоответствия клипов песне.

    ↑ Спрятать рекламу ↑



    Download


     
    
    
    Aeturnus- Ild Dans
                         From the Album - And so the Night Became...
                  Copyright 1998 - Pavement Music
                         Version 1.0 - September- 2001
    Transcribed by: Mike B. 
    
    For Questions, Comments, Newest Version, or Corrections contact
    Steve S.: at Setherial99@AOL.com
    
    ..  - palm mute          /  - slide up to
       - slide down to      ~  - vibrato
     h  - hammer on          b  - bend
     p  - pull off            Suffixes for bend
                              ph - pinch harmonic
                               f - full bend    h - half bend
    *  - see comment           r - release      t - tap bend
    X  - percussion mute       ~ - vibrato bend
    @  - slight palm mute     () - ghost note, sustained note
    
    Standard E tuning
    
    Mind Corruption
    
    Riff A
    |---------------|------|---------------|------|---------------|------|
    |---------------|------|---------------|------|---------------|------|
    |---------------|------|---------------|------|---------------|------|
    |--7-777-7-7-7--|--2x--|--5-555-5-5-5--|--2x--|--3-333-3-3-3--|--2x--| 
    |--7-777-7-7-7--|------|--5-555-5-5-5--|------|--3-333-3-3-3--|------|
    |--5-555-5-5-5--|------|--3-333-3-3-3--|------|--1-111-1-1-1--|------|
    |                                                                    |
    |---------------|------|---------------------------------------------|
    |---------------|------|---------------------------------------------|
    |---------------|------|---------------------------------------------| 
    |--2-222-2-2-2--|--2x--|---------------------------------------------| 
    |--2-222-2-2-2--|------|---------------------------------------------|
    |--0-000-0-0-0--|------|---------------------------------------------|
    
    Riff B
    |-----------------------------------------------|--------------------|
    |-----------------------------------------------|--------------------|
    |-----------------------------------------------|--------------------|
    |--7-77-7-7-7-7--10-1010-10-7-7-7--2-22-2-7-7-7-|--------------------| 
    |--7-77-7-8-8-8--10-1010-10-8-8-8--2-22-2-8-8-8-|-888-777-777--------|
    |--5-55-5--------8--8-8--8---------0-00-0-------|-------------4~-----|
    |                                                                    |
    
    Riff C (acoustic)
    |--------------------------|-----------------------------------------|
    |--------------------------|-----------------------------------------|
    |--2-2-2----------------0--|--2-2-2----------------------------------|
    |--2-2-2---2h3p2--0-2-3----|--2-2-2-7-7h9p7--5--7-3-5----------------|
    |--0-0-0-0-----------------|--0-0-0----------------------------------|
    |--------------------------|-----------------------------------------|
    
    |--------------------------|-----------------------------------------|
    |--------------------------|-----------------------------------------|
    |--2-2-2-------------------|--2-2-2----------------------------------|
    |--2-2-2---2h3p2--0-2-3-0--|--2-2-2-7-7h9p7--5--7-3-5----------------|
    |--0-0-0-0-----------------|--0-0-0----------------------------------|
    |--------------------------|-----------------------------------------|
    
    |-----------------------------|--------------------------------------|
    |--------------------------8--|--------------------------------------|
    |-----------9h10p9--7-9-10----|--------------------------------------|
    |--7-7-7-7--------------------|--7-7-7--17-17-17--17-15-14-----------|
    |--0-0-0-0--------------------|--0-0-0--0--0--0---0--0--0------------|
    |-----------------------------|--------------------------------------|
    
    |------------------------|-------------------------------------------|
    |---------------------8--|-------------------------------------------|
    |--2--9h10p9--7--9-10----|--2--7h9p7--5--7-4-5-----------------------|
    |--2---------------------|--2----------------------------------------|
    |--0---------------------|--0----------------------------------------|
    |------------------------|-------------------------------------------|
    
    Riff D
    |--------------------------------------------------------------------|
    |--------------------------------------------------------------------|
    |--55555555-7777-5555--11111111--2222-4444---------------------------|
    |--77777777-9999-7777--22222222--3333-5555-2x------------------------|
    |--------------------------------------------------------------------|
    |--------------------------------------------------------------------|
    
    |---------------------------------------|----------------------------|
    |---------------------------------------|----------------------------|
    |--2222222222222222--77777777-5555-4444-|----------------------------|
    |--3333333333333333--55555555-5555-5555-|--22-00-22-33-5555-33-22----|
    |---------------------------------------|--00-00-00-00-0000-00-00----|
    |---------------------------------------|----------------------------|
    
    Riff E
    |--------------------------|-----------------------------------------|
    |--------------------------|-----------------------------------------|
    |--------------------------|-----------------------------------------|
    |-----------9-9-9-9--9999--|--77777777--9-9-9-9--9999----------------|
    |--9999999--10101010-9999--|--55555555--10101010-9999----------------|
    |--7777777-----------------|-----------------------------------------|
    
    |-----------------------------------|---------------------------|----|
    |-----------------------------------|---------------------------|----|
    |-----------------------------------|---------------------------|----|
    |--------------------9-9-9-9--9999--|---------------------------|-4--|
    |--1111111111111111--10101010-9999--|--54-44-42-22-2p0-00-22--|-4--|
    |--9-9-9-9-9-9-9-9------------------|---------------------------|-2--|
    
    Riff F
    |-------------------------|------------------------------------------|
    |-------------------------|------------------------------------------|
    |-----9--7/9--9-9--7-7-7--|------------------------------------------|
    |--9--9--7/9--9-9--7-7-7--|--9--9------------------------------------|
    |--9--7--5/7--7-7--5-5-5--|--7--7---5h7p54--5p4p2-------------------|
    |--7----------------------|--0--0------------------------------------|
    
    |-----------------------|--------------------------------------------|
    |-----------------------|--------------------------------------------|
    |-----------------------|--------------------------------------------|
    |--9--7/9--9-9-7-7-7-4--|--9--11-11-12-14-12h14p1211-----11-4-------|
    |--7--5/7--7-7-5-5-5-5--|--7--0--0--0--0--0-----------12--9--5-------|
    |--0--0-----------------|--0-----------------------------------------|
    
    Riff G
    |------------|------------|------------|-----------------------------|
    |------------|------------|------------|-----------------------------|
    |------------|------------|------------|-----------------------------|
    |--9------5--|--9------5--|--4-4444-0--|--5-5555-4-------------------|
    |--7-7777-7--|--7-7777-7--|--5-5555-5--|--5-5555-5-------------------|
    |--0-0000-0--|--0-0000-0--|------------|-----------------------------|
    
    Riff H
    |--------------------------------------------------------------------|
    |--------------------------------------------------------------------|
    |--------5------------5------------4-------5-----4-------------------|
    |-----5-----5------5-----5------4------4------4-----4----------------|
    |--3------------3------------2---------------------------------------|
    |--------------------------------------------------------------------|
    
    Riff I (Lead)
    |--------------|-----------------------------------------------------|
    |--------------|-----------------------------------------------------|
    |--------5--4--|-----7-5-4-----------4-------------------------------|
    |--5--2--------|-----------7-5-4-5-7---7-5-4-------5-4---------------|
    |--------------|--6--------------------------7-6-7-----7-6-4-6-------|
    |--------------|-----------------------------------------------------|
    
    |---------------------|----------------------------------------------|
    |---------------------|----------------------------------------------|
    |---------------------|----------------------------------------------|
    |----------4h5-4-9----|----------------------------------------------|
    |--7--7-7--------7-7--|--6--6h7h9----9-------------------------------|
    |---------------------|------------8---7-----------------------------|
    
    |--------------------------------------------------------------------|
    |------------------------------------8-10-12--7~---------------------|
    |-----------------------------8-9-11---------------------------------|
    |--7--5-4--------------7-9-10----------------------------------------|
    |----------7----7-9-10-----------------------------------------------|
    |--------------------------------------------------------------------|
    
    |------------------3------|--------|--------|------------------------|
    |--7h8-5--5h7--------5----|--7--5--|--5--4--|------------------------|
    |-------------4--4-----4--|--x--x--|--x--x--|--4---------------------|
    |-------------------------|--4--2--|--2--1--|--x---------------------|
    |-------------------------|--------|--------|--2---------------------|
    |-------------------------|--------|--------|------------------------|
    
    |--------|-----------|--------|---------------------|----------------|
    |--------|-----------|--------|--10h12--121212-12--|--8--7777------|
    |--5-----|-----------|--------|--x------x-x-x--x---|--x--xxxx------|
    |--x--7--|--9/10--9--|--5--4--|--7-/9---9-9-9--9---|--5--4444------|
    |--3--x--|--x/x---x--|--x--x--|---------------------|----------------|
    |-----5--|--7/8---7--|--3--2--|---------------------|----------------|
    
    |-----|-----------|-------------|-----------|-----------------------|
    |-5--|--5--5555--|--5--5--5/7--|--4--4444--|--4444-----------------|
    |-x--|--x--xxxx--|--x--x--x/x--|--x--xxxx--|--xxxx-----------------|
    |-2--|--2--2222--|--2--2--2/4--|--1--1111--|--1111-----------------|
    |-----|-----------|-------------|-----------|-----------------------|
    |-----|-----------|-------------|-----------|-----------------------|
    
    |------------|------------|-----x2-----|--------x2----------|-------|
    |------------|------------|------------|--------------------|-------|
    |--5--5-5-5--|--5--5-5-5--|--88888888--|--1010101010101010--|--5-4--|
    |--x--x-x-x--|--x--x-x-x--|--xxxxxxxx--|--x-x-x-x-x-x-x-x---|--x-x--|
    |--2--2-2-2--|--2--2-2-2--|--55555555--|--7-7-7-7-7-7-7-7---|--2-1--|
    |------------|------------|------------|--------------------|-------|
    |------------|------------|------------|--------------------|-------|
    
    Riff J1
    |--------------------------------------------------------------------|
    |--------------------------------------------------------------------|
    |----4-3-4----6-4-6----7-6-7--6h7p6-4-7-6----------------------------|
    |--4--------4--------4-----------------------------------------------|
    |--------------------------------------------------------------------|
    |--------------------------------------------------------------------|
    
    |--------------------------------------------------------------------|
    |--------------------------------------------------------------------|
    |----4-3-4----6-7-6----7-6-7--4h6p4-3-4------------------------------|
    |--4--------4--------4------------------4----------------------------|
    |--------------------------------------------------------------------|
    |--------------------------------------------------------------------|
    
    |--------------------------------------------------------------------|
    |--------------------------------------------------------------------|
    |----4-3-4----6-4-6----7-6-7--6h7p6-4-7-6----------------------------|
    |--4--------4--------4-----------------------------------------------|
    |--------------------------------------------------------------------|
    |--------------------------------------------------------------------|
    
    |--------------------------------------------------------------------|
    |--------------------------------------------------------------------|
    |----4-3-4----6-7-6----7-6-7--4h6p4-3-4-6-3-4------------------------|
    |--------------------------------------------------------------------|
    |--------------------------------------------------------------------|
    |--------------------------------------------------------------------|
    
     J2
    |--------------------------------------------------------------------|
    |--------------------------------------------------------------------|
    |--------------------------------------------------------------------|
    |----4------4------4------5------4------4------4------4--------------|
    |--2---2--4---4--5---5--7---7--5---5--4---4--2---2--1---1------------|
    |--------------------------------------------------------------------|
    
    |--------------------------------------------------------------------|
    |--------------------------------------------------------------------|
    |--------------------------------------------------------------------|
    |----4------4------4------5------4------4-------4--------------------|
    |--2---2--4---4--5---5--7---7--5---5--4---4--2-----1--2--------------|
    |--------------------------------------------------------------------|
    
    Riff K
    |-------------------------------|------------------------------------|
    |----------3-3333---------3--3--|------------------------------------|
    |--5--5----5-5555--5-5----5--5--|--4--4--------5-5-2-2--2h4-4-4------|
    |--5----5--5-5555--5---5--5--5--|--4----4---4--4-4-4-4--4---4-4------|
    |--3---------------3------------|--2------2----2-2-2-2--2---2-2------|
    |-------------------------------|------------------------------------|
    
    |--------------------------------------------------------------------|
    |--------------------------------------------------------------------|
    |--4-----------------------------------------------------------------|
    |--4-----------------------------------------------------------------|
    |--2-----------------------------------------------------------------|
    |--2-----------------------------------------------------------------|
    
     Riff L (acoustic) Listen to song to figure out order
    |--2-2222--2-2222--2-2222--2--2-2--0---------------------------------|
    |--3-3333--3-3333--3-3333--3--3-3--0---------------------------------|
    |--4-4444--4-4444--4-4444--4--4-4--2---------------------------------|
    |--4-4444--4-4444--4-4444--4--4-4--2---------------------------------|
    |--2-2222--2-2222--2-2222--2--2-2--0---------------------------------|
    |--------------------------------------------------------------------|
     
    |--3-3333--3-3333--3-3333--3--3-3--0---------------------------------|
    |--3-3333--3-3333--3-3333--3--3-3--0---------------------------------|
    |--5-5555--5-5555--5-5555--5--5-5--2---------------------------------|
    |--5-5555--5-5555--5-5555--5--5-5--2---------------------------------|
    |--3-3333--3-3333--3-3333--3--3-3--0---------------------------------|
    |--------------------------------------------------------------------|
     

    Тональность:

    Нет текста!



    Назад

    • Комментарии Facebook ()
    • Комментарии ВКонтакте



    Добавить в Избранное Браузера
    Сохранить здесь Очистить


    x

    0


    +
    -

    +
    -

    -

    Авторизация





    Зарегистрироваться

    M

    Дата и время

    • 15:39:18
       

    Социальные ссылки


    Наши приложения

    • Muzbank App Play Market
    • Muzbank Amazon App