MUZBANK



A Most Complete Bank Of Music Information

МУЗЫКАЛЬНО-ИНФОРМАЦИОННЫЙ БАНК

Поиск по сайту







    AAfi • Advances In Modern Technology (аккорды и текст - chords & lyrics)


    261

    Print

    Видео «Advances In Modern Technology (Afi)»

    Видео клипы к песне подбираются автоматически сайтом youtube. Возможны некоторые несоответствия клипов песне.

    ↑ Спрятать рекламу ↑



    Download


     
    
    
    Song: Advances in Modern Technology
    Artist: AFI
    Album: Very Proud of Ya
    Tabbed by: Dan(afi_fall_child)
    
    *=Palm mute
    /=slide
    ~=rest
    
    Intro
    e----------------------------------------------------------
    B----------------------------------------------------------
    G---*-*-*-*----------------------*-*-*-*-*-----------------
    D-9-9-9-9-9-9/12-12-12-12-11-7-5-5-5-5-5-5-5/7~7-7-7-7/9--
    A-7-7-7-7-7-7/10-10-10-10-9--5-3-3-3-3-3-3-3/5~5-5-5-5/7--
    E----------------------------------------------------------
    
    e----------------------------------------------------------
    B----------------------------------------------------------
    G---*-*-*-*-------------------*-*-*-*-*--------7-8-7-8-7---
    D-9-9-9-9-9-9/12-12-12-12-11-7-5-5-5-5-5-5-5/7-7-7-7-7-7---
    A-7-7-7-7-7-7/10-10-10-10-9--7-3-3-3-3-3-3-3/5-------------
    E----------------------------------------------------------
    
    Verse
    e-----------------------------------------------------------
    B-----------------------------------------------------------
    G-----------------------------------------------------------
    D-99999-77777-55555-44444-22222-44444-55-77-----------------
    A-77777-55555-33333-22222-00000-22222-33-55-----------------
    E-----------------------------------------------------------
    
    Ending
    e-----------------------------------------------------------
    B-----------------------------------------------------------
    G-----------------------------------------------------------
    D-999-777-55555-999-----------------------------------------
    A-777-555-33333-777-12-12-12-10-10-10-----------------------
    E-------------------10-10-10-8--8--8------------------------
    
    Song Order:
    Intro (x2)
    Verse(x10)
    Intro(x2)
    Verse(x6)
    Ending
     

    Тональность:

    Нет текста!



    Назад
    Рекомендуем посмотреть другие песни исполнителя «Afi»:

    • Комментарии Facebook ()
    • Комментарии ВКонтакте



    Добавить в Избранное Браузера
    Сохранить здесь Очистить


    x

    0


    +
    -

    +
    -

    -

    Авторизация





    Зарегистрироваться

    M

    Дата и время

    • 18:36:34
       

    Социальные ссылки


    Наши приложения

    • Muzbank App Play Market
    • Muzbank Amazon App