MUZBANK



A Most Complete Bank Of Music Information

МУЗЫКАЛЬНО-ИНФОРМАЦИОННЫЙ БАНК

Поиск по сайту







    AAfi • Consult My Lover (аккорды и текст - chords & lyrics)


    222

    Print

    Видео «Consult My Lover (Afi)»

    Видео клипы к песне подбираются автоматически сайтом youtube. Возможны некоторые несоответствия клипов песне.

    ↑ Спрятать рекламу ↑



    Download


     
    
    
    -------------------------------------------------------------------------------
                               CONSULT MAY LOVER - AFI
    -------------------------------------------------------------------------------
    
    Tabbed by: DANC446
    Email: DANC446@YAHOO.COM
    
    Tuning: StAnDaRd E tuning
    
    INTRO CHORD  
    e|---0----|
    B|---0----|
    G|---9----|
    D|---9----|
    A|---7----|
    E|---0----|
    
    VERSE
    e|-----------------------------------------------------------------|
    B|-----------------------------------------------------------------|
    G|-9-9-9-9---------7-7-7-7---------5-5-5-5---------9-9-9-9---------|
    D|-9-9-9-9-5-5-5-5-7-7-7-7-7-7-7-7-5-5-5-5-5-5-5-5-9-9-9-9-7-7-7-7-|
    A|-7-7-7-7-5-5-5-5-5-5-5-5-7-7-7-7-3-3-3-3-5-5-5-5-7-7-7-7-7-7-7-7-|
    E|---------3-3-3-3---------5-5-5-5---------3-3-3-3---------5-5-5-5-|
    
    CHORUS
    e|------------------------------------------|
    B|------------------------------------------|
    G|-9-9-9-7-9-9-9-12-9-9-9-7---------7-7-7-7-|
    D|-9-9-9-7-9-9-9-12-9-9-9-7-5-5-5-5-7-7-7-7-|
    A|-7-7-7-5-7-7-7-10-7-7-7-5-5-5-5-5-5-5-5-5-|
    E|--------------------------3-3-3-3---------|
    
    VERY SIMPLE; PLAY IT FAST AND PLAY IT LOUD AND YOU GOT IT!
    
    | /  slide up
    |   slide down
    | h  hammer-on
    | p  pull-off
    | ~  vibrato
    | +  harmonic
    | x  Mute note
    | :  LET RING
    ===============================================================================
     

    Тональность:

    Нет текста!



    Назад
    Рекомендуем посмотреть другие песни исполнителя «Afi»:

    • Комментарии Facebook ()
    • Комментарии ВКонтакте



    Добавить в Избранное Браузера
    Сохранить здесь Очистить


    x

    0


    +
    -

    +
    -

    -

    Авторизация





    Зарегистрироваться

    M

    Дата и время

    • 07:34:13
       

    Социальные ссылки


    Наши приложения

    • Muzbank App Play Market
    • Muzbank Amazon App