MUZBANK



A Most Complete Bank Of Music Information

МУЗЫКАЛЬНО-ИНФОРМАЦИОННЫЙ БАНК

Поиск по сайту







    AAfi • Cruise Control (аккорды и текст - chords & lyrics)


    253

    Print

    Видео «Cruise Control (Afi)»

    Видео клипы к песне подбираются автоматически сайтом youtube. Возможны некоторые несоответствия клипов песне.

    ↑ Спрятать рекламу ↑



    Download


     
    
    
    AFI - Cruise Control
    
    Verse
    e|-----------------------------------------------| 
    B|-----------------------------------------------| 
    G|-11-11-11-10-10-10-9-5-4-11-11-11-6-6-9-9--14--| 
    D|-11-11-11-10-10-10-9-7-4-11-11-11-6-6-9-9--14--| 
    A|-9--9--9--8--8--8--7-5-2-9--9--9--4-4-7-7--12--| 
    E|-----------------------------------------------| 
    
    Chorus
    e|-----------------------------------------------| 
    B|-----------------------------------------------| 
    G|-11-11-11-10-9-9-9-4----11-11-11-10-9-9-9-4-11-| 
    D|-11-11-11-10-9-9-9-4-x2-11-11-11-10-9-9-9-4-11-| 
    A|-9--9--9--8--7-7-7-2----9--9--9--8--7-7-7-2-9--| 
    E|-----------------------------------------------| 
    
    Bridge
    e|-----------------------------------------------| 
    B|-----------------------------------------------| 
    G|--11-11-7-7-11-11-7-7-11-11-7-7-11-11/-14------| 
    D|--11-11-7-7-11-11-7-7-11-11-7-7-11-11/-14------| 
    A|--9--9--5-5-9--9--5-5-9--9--5-5-9--9-/-12------| 
    E|-----------------------------------------------|
     

    Тональность:

    Нет текста!



    Назад
    Рекомендуем посмотреть другие песни исполнителя «Afi»:

    • Комментарии Facebook ()
    • Комментарии ВКонтакте



    Добавить в Избранное Браузера
    Сохранить здесь Очистить


    x

    0


    +
    -

    +
    -

    -

    Авторизация





    Зарегистрироваться

    M

    Дата и время

    • 13:21:46
       

    Социальные ссылки


    Наши приложения

    • Muzbank App Play Market
    • Muzbank Amazon App