MUZBANK



A Most Complete Bank Of Music Information

МУЗЫКАЛЬНО-ИНФОРМАЦИОННЫЙ БАНК

Поиск по сайту







    AAfi • Hearts Frozen Soil Sod Once More By The Spri (аккорды и текст - chords & lyrics)


    244

    Print

    Видео «Hearts Frozen Soil Sod Once More By The Spri (Afi)»

    Видео клипы к песне подбираются автоматически сайтом youtube. Возможны некоторые несоответствия клипов песне.

    ↑ Спрятать рекламу ↑



    Download


     
    
    
    Song: Hearts frozen soil sod once more by the spring of
          Rage despair and hopelesness
    Band: A.F.I
    Album: Short Music for Short people
    By: Nick Fraher
    
    
    Intro
    G:-------------------------------------------------------
    D:----------------5975----------542------222222-542------
    A:-----235555-3-77----333333-------5555-2----------532---
    E:3333-----------------------333----------------------53-
    
    Verse
    G:-----------------------
    D:-----------------------
    A:---3-----3-----3--5555-
    E:000-3-000-3-000-3------
    
    Outro
    G:-----------------------------------------------754-----
    D:-----------------5975---555----542---754---5975--------
    A:----235555-235-77----333----------555----77-------333--
    E:3333------------------------333----------------------3-
     

    Тональность:

    Нет текста!



    Назад
    Рекомендуем посмотреть другие песни исполнителя «Afi»:

    • Комментарии Facebook ()
    • Комментарии ВКонтакте



    Добавить в Избранное Браузера
    Сохранить здесь Очистить


    x

    0


    +
    -

    +
    -

    -

    Авторизация





    Зарегистрироваться

    M

    Дата и время

    • 01:31:47
       

    Социальные ссылки


    Наши приложения

    • Muzbank App Play Market
    • Muzbank Amazon App