MUZBANK



A Most Complete Bank Of Music Information

МУЗЫКАЛЬНО-ИНФОРМАЦИОННЫЙ БАНК

Поиск по сайту







    AAfi • Todays Lesson (аккорды и текст - chords & lyrics)


    258

    Print

    Видео «Todays Lesson (Afi)»

    Видео клипы к песне подбираются автоматически сайтом youtube. Возможны некоторые несоответствия клипов песне.

    ↑ Спрятать рекламу ↑



    Download


     
    
    
    tabbed by: edvice
    artist:filth (covered by AFI)
    
    intro/verse:
    
    |-000---3-333---777--5-555------------|   |-000---3-333---77777777---------|
    |-222---5-555---999--7-777------------|   |-222---5-555---99999999---------|
    |-222---5-555---999--7-777---x3 then--|   |-222---5-555---99999999---------|
    |-------------------------------------|   |--------------------------------|
    |-------------------------------------|   |--------------------------------| 
    |-------------------------------------|   |--------------------------------|
    
    
    chorus:
    
    |-000---3-333---555--8-8-8-8----------------------|
    |-222---5-555---777--10101010----5-7777-5-7777----|
    |-222---5-555---777--10101010----7-9999-7-9999----|
    |--------------------------------7-9999-7-9999----|
    |-------------------------------------------------|
    |-------------------------------------------------|
    
    and thts the song.. i love it. have fun...
     

    Тональность:

    Нет текста!



    Назад
    Рекомендуем посмотреть другие песни исполнителя «Afi»:

    • Комментарии Facebook ()
    • Комментарии ВКонтакте



    Добавить в Избранное Браузера
    Сохранить здесь Очистить


    x

    0


    +
    -

    +
    -

    -

    Авторизация





    Зарегистрироваться

    M

    Дата и время

    • 17:13:23
       

    Социальные ссылки


    Наши приложения

    • Muzbank App Play Market
    • Muzbank Amazon App