MUZBANK



A Most Complete Bank Of Music Information

МУЗЫКАЛЬНО-ИНФОРМАЦИОННЫЙ БАНК

Поиск по сайту







    AAgainst All Authority • 12 00 Am (аккорды и текст - chords & lyrics)


    359

    Print

    Видео «12 00 Am (Against All Authority)»

    Видео клипы к песне подбираются автоматически сайтом youtube. Возможны некоторые несоответствия клипов песне.

    ↑ Спрятать рекламу ↑



    Download


     
    
    
    12:00 A.M.
    Against All Authority
    All Fall Down
    
    
    
    VERSE
    
    G:------------------------------------------
    D:------------------------------------------
    A:-2>-0>-0--2-222-0>-0--2>-0>-0--2-222-0>-0-
    E:------0-----------0--------0-----------0--
    (I THINK THIS IS RIGHT)
    
    PRE-CHORUS
    
    G:------------------------
    D:---0>-2>-(0-2-0)--------
    A:-2>-------------2>--0>--
    E:------------------0>----
    ()- NOT ABSOLUTELY SHURE
    
    CHORUS
    
    G:-------------------------------------------------------------------
    D:-------0-----2-0-------0-----2-0-------0-----2-0-------------------
    A:-2-2-2---0-0-----2-2-2---0-0-----2-2-2---0-0------2>-0-0-0-0-0-0-0-
    E:-------------------------------------------------------------------
     

    Тональность:

    Нет текста!



    Назад
    Рекомендуем посмотреть другие песни исполнителя «Against All Authority»:

    • Комментарии Facebook ()
    • Комментарии ВКонтакте



    Добавить в Избранное Браузера
    Сохранить здесь Очистить


    x

    0


    +
    -

    +
    -

    -

    Авторизация





    Зарегистрироваться

    M

    Дата и время

    • 23:19:03
       

    Социальные ссылки


    Наши приложения

    • Muzbank App Play Market
    • Muzbank Amazon App