MUZBANK



A Most Complete Bank Of Music Information

МУЗЫКАЛЬНО-ИНФОРМАЦИОННЫЙ БАНК








    AAgnostic Front • Discriminate Me (аккорды и текст - chords & lyrics)


    288

    Print

    Видео «Discriminate Me (Agnostic Front)»

    Видео клипы к песне подбираются автоматически сайтом youtube. Возможны некоторые несоответствия клипов песне.

    ↑ Спрятать рекламу ↑





     
    
    
    ----------------------------------------
      DISCRIMINATE ME - Agnostic Front
    ----------------------------------------
    
    
    SONG: Discriminate Me
    BAND: Agnostic Front
    TABBED BY: C. Hall
    
    
        verse
    e|------------------------|
    B|------------------------|
    G|------------------------|
    D|--5/7-5/7-5/7-5/7-------|
    A|--3/5-3/5-3/5-3/5-7-----|
    E|------------------5-----|
    
        chorus
    e|------------------------|
    B|------------------------|
    G|------------------------|
    D|--------------9-9-9-----|
    A|--7-7-7-7-7-7-7-7-7-10--|
    E|--5-5-5-5-5-5------- 8--|
     

    Тональность:

    Нашли ошибку?



    Назад
    Рекомендуем посмотреть другие песни исполнителя «Agnostic Front»:

    • Комменты Fb ()
    • Комменты ВК



    Добавить в Избранное Браузера
    Сохранить здесь Очистить


    x

    0


    +
    -

    +
    -

    -

    Авторизация





    Зарегистрироваться

    M

    Дата и время

    • 20:34:26
       

    Социальные ссылки


    Наши приложения

    • Muzbank App Play Market
    • Muzbank Amazon App