MUZBANK



A Most Complete Bank Of Music Information

МУЗЫКАЛЬНО-ИНФОРМАЦИОННЫЙ БАНК

Поиск по сайту







    AAgnostic Front • Love To Be Hated (аккорды и текст - chords & lyrics)


    263

    Print

    Видео «Love To Be Hated (Agnostic Front)»

    Видео клипы к песне подбираются автоматически сайтом youtube. Возможны некоторые несоответствия клипов песне.

    ↑ Спрятать рекламу ↑



    Download


     
    
    
    Tabbed by: Teh Edster
    Email: I3irthDefect@aol.com
    Artist: Agnostic Front
    Song: Love To Be Hated
    *Not Showing Strumming Patterns*
     - Slide Down
    / - Slide Up
    Tuning:EADEGBe
    
    
    
    Intro/Chorus-
    
    e|----------------|        e|-----------|                                      
    B|----------------|        B|-----------|                               
    G|----------------| (x3)   G|-----------| (x1)                     	
    D|--7-7--5-5-5-/-|        D|--7-7-7-7--|                         
    A|--7-7--5-5-5-/-|        A|--7-7-7-7--|                              
    E|--5-5-0-3-3-3-0-|        E|--5-5-5-5--|                        
    
    
    e|----------------|	
    B|----------------|	
    G|-7-7--5-5-5-/--| 	
    D|-7-7--5-5-5-/--| (x2)	
    A|-5-5-0-3-3-3-0--|	
    E|----------------|	
    
    Verse-
    
    e|---------------------------|
    B|---------------------------|
    G|--7-7-5-5-5-8-8-7-7--------|
    D|--7-7-5-5-5-8-8-7-7-7-7-7--| (x2)
    A|--5-5-3-3-3-6-6-5-5-7-7-7--|
    E|--------------------5-5-5--|
    
    Solo-
    
    e|---------------------------------------------------------------------------------------|
    B|------------------------------------------------/10-10~---10-10~---10-10~-------10-10~-|
    G|--/7-7-5-5-8-8-7-7-2-2-1-2--/7-7-5-5-8-8-7-7-2--------------------------11-11----------|
    D|---------------------------------------------------------------------------------------|
    A|---------------------------------------------------------------------------------------|
    E|---------------------------------------------------------------------------------------|
    
    Guitar 2 - Breakdown -
    
    e|----------------------------------------------------------------------------|
    B|----------------------------------------------------------------------------|
    G|--7-7-5-5-5-8-8-7-7------------9-9-9-5-7-7-7-------------5-5-5-7-7-7-7------|
    D|--7-7-5-5-5-8-8-7-7-7-7-7------9-9-9-5-7-7-7-------9-9-9-5-5-5-7-7-7-7------|
    A|--5-5-3-3-3-6-6-5-5-7-7-7-(x2)-7-7-7-3-5-5-5-(x3)--9-9-9-3-3-3-5-5-5-5-(x1)-|
    E|--------------------5-5-5--------------------------7-7-7--------------------|
    
    Ending -
    
    e|----------------|                                             
    B|----------------|	                                  
    G|----------------| Keep Repeating (Slowly Fade Out)                       	
    D|--7-7--5-5-5-/-|	                           
    A|--7-7--5-5-5-/-|	                                
    E|--5-5-0-3-3-3-0-|	     
    
    
    Song-
    Intro
    Verse
    Chorus
    Verse
    Chorus
    Solo (While Gtr. 2 Is playing the Breakdown)
    Chorus
    Verse
    Chorus
     

    Тональность:

    Нет текста!



    Назад
    Рекомендуем посмотреть другие песни исполнителя «Agnostic Front»:

    • Комментарии Facebook ()
    • Комментарии ВКонтакте



    Добавить в Избранное Браузера
    Сохранить здесь Очистить


    x

    0


    +
    -

    +
    -

    -

    Авторизация





    Зарегистрироваться

    M

    Дата и время

    • 07:03:53
       

    Социальные ссылки


    Наши приложения

    • Muzbank App Play Market
    • Muzbank Amazon App