MUZBANK



A Most Complete Bank Of Music Information

МУЗЫКАЛЬНО-ИНФОРМАЦИОННЫЙ БАНК

Поиск по сайту







    AAguilera Christina • Pero Me Acuerdo De Ti (аккорды и текст - chords & lyrics)


    355

    Print

    Видео «Pero Me Acuerdo De Ti (Aguilera Christina)»

    Видео клипы к песне подбираются автоматически сайтом youtube. Возможны некоторые несоответствия клипов песне.

    ↑ Спрятать рекламу ↑



    Download


     
    
    
    Christina Aguilera - Pero Me Acuerdo De Ti
    Submitted By: Stuart
    
    
    
    Intro:
    
    E|----------------------|------------------------|--------------------|
    B|-11-11-11-11-9-14-----|------------------------|--7-11h12-11-11-9-9-|
    G|------------------11--|---10h11---------8h9-11-|--------------------|
    D|----------------------|---------(11)-----------|--------------------|
    A|----------------------|------------------------|--------------------|
    E|----------------------|------------------------|--------------------|After Chorus:
    
    E|---------------------------------------------|
    B|------------------------------6h7-6----------|
    G|-11-10-11-11-11-10-11-8p6-6h8---------8-6-(8)|
    D|---------------------------------------------|
    A|---------------------------------------------|
    E|---------------------------------------------|
    
    
    Solo:
    
    E|------------------------------------------------------
    B|-11-11-11-12-10----12--13p12-----------15-------------
    G|----------------12-----------12-11-12------12-11/9/11-
    D|------------------------------------------------------
    A|------------------------------------------------------
    E|------------------------------------------------------
    
    
    E|----12-10-8-7h8-------------10-8-7h8p7-|
    B|------------------8-8-7h8-7------------|
    G|-11------------------------------------|
    D|---------------------------------------|
    A|---------------------------------------|
    E|---------------------------------------|
    
    
    The song goes like: Intro, Verse, Chorus, Verse, Chorus, Solo, Chorus.
    
    The chords played all over the song are something like: G Am G D
                                                                Enjoy
     

    Тональность:

    Нет текста!



    Назад
    Рекомендуем посмотреть другие песни исполнителя «Aguilera Christina»:

    • Комментарии Facebook ()
    • Комментарии ВКонтакте



    Добавить в Избранное Браузера
    Сохранить здесь Очистить


    x

    0


    +
    -

    +
    -

    -

    Авторизация





    Зарегистрироваться

    M

    Дата и время

    • 17:51:09
       

    Социальные ссылки


    Наши приложения

    • Muzbank App Play Market
    • Muzbank Amazon App