MUZBANK



A Most Complete Bank Of Music Information

МУЗЫКАЛЬНО-ИНФОРМАЦИОННЫЙ БАНК

Поиск по сайту







    AAha • Summer Moved On (аккорды и текст - chords & lyrics)


    452

    Print

    Видео «Summer Moved On (Aha)»

    Видео клипы к песне подбираются автоматически сайтом youtube. Возможны некоторые несоответствия клипов песне.

    ↑ Спрятать рекламу ↑



    Download


     
    
    
    Riff 1 	        
    --------------  
    -------------- 	 	
    --------------   
    ----9--9-9-9--    
    -7--------7---   
    --------------  
    	       	
    Riff2
    ----------------------------------
    ----------------------------------
    ----12-12-12h11-11----9-9-9h7-7---
    --9----------------7--------------
    ----------------------------------
    ----------------------------------
    
    Riff3
    -----------------
    -----------------
    -----9------7----
    --7-------9------
    --------7--------
    -----------------
    
    
    Play The INTRO in this order :
    
    INTRO
    
    4 times Riff1
    1 time  Riff2
    1 time  Riff3
    
    1 time  Riff1
    1 time  Riff2
    1 time  Riff3
    
    
    
    GUITAR SOLO
    									
    							       G#aug   fast  	
    --------------------------------------------------------------------------
    --------------------------------------------------------------------------
    ---11h9--9--9-11-12--11/1211-11--7/97-7-6/76-6-7-9--4/64--11-11-12----
    -----------------------------------------------------------------------11-
    --------------------------------------------------------------------------
    --------------------------------------------------------------------------
     
    fast	G#aug	      G#aug	 	  Play this part as fast as you can 
    -----------------------------------------------------------------
    -----------------------------------------------------------------
    -12-11-12----12-11-12----12-11---11/1211--6/7-6-7-9-6-7-9-6-9-6-
    ----------11----------11-----------------------------------------
    -----------------------------------------------------------------
    -----------------------------------------------------------------
    
    Play as fast as you can
    --------------------------------------------------------------------------
    --------------------------------------------------------------------------
    --11/911/911~~----------------------------------------------------------
    --------------------------------------------------------------------------
    --------------------------------------------------------------------------
    --------------------------------------------------------------------------
    
    
    OUTRO
    	      Fast		   Fast        C      Am  
    ----------------------------------------------------------------------------
    ----------------------------------------------------------------------------
    --12---11----11-11---------6---6-6--------------7-------6----12-----12--11--
    ---------------9--------7-------7-------------7----7---7---------9----------
    --------------------------------------------0--------7----------------------
    ----------------------------------------------------------------------------
    
    								  F
    -------------------------------------------------------------------5--
    -------------------------------------------------------------------5--
    -----12--11-------------9-----------------7--------6------------7--6--
    --9----------7--11---7-----11--7--5---7---------7----------7-------7--
    ---------------------------------------------5---------5-----------7--
    -------------------------------------------------------------------5--
     

    Тональность:

    Нет текста!



    Назад
    Рекомендуем посмотреть другие песни исполнителя «Aha»:

    • Комментарии Facebook ()
    • Комментарии ВКонтакте



    Добавить в Избранное Браузера
    Сохранить здесь Очистить


    x

    0


    +
    -

    +
    -

    -

    Авторизация





    Зарегистрироваться

    M

    Дата и время

    • 19:06:12
       

    Социальные ссылки


    Наши приложения

    • Muzbank App Play Market
    • Muzbank Amazon App