MUZBANK



A MOST COMPLETE BANK OF MUSIC INFORMATION

МУЗЫКАЛЬНО-ИНФОРМАЦИОННЫЙ БАНК







    AAir • The Song Of The Century (аккорды и текст - chords & lyrics)


    355

    Print

    Видео «The Song Of The Century (Air)»

    Видео клипы к песне подбираются автоматически сайтом youtube. Возможны некоторые несоответствия клипов песне.

    ↑ Спрятать рекламу ↑





     
    
    
    e-12(50x)-9~-------------------------------------------
    b------------------------------------------------------
    g------------------------------------------------------
    d-------------------7777--777-555-2--222---------------
    a-------------------7777--777-555-2--222--(5x)---------
    e-------------------5555--555-333-0--000---------------
    
    
    e-------------------------------------------
    b-------------------------------------------
    g---------999--9-----------777--7-----------
    d---------999--99-999999---777--77-777777---
    a---------777--79-999999---555--57-777777---
    e---------------7-777777---------5-555555---
    
    
    e--------------------------------------------------
    b--------------------------------------------------
    g---------999--9-----------777--7------------------
    d---------999--99-999999---777--72-222222-2-222222-
    a---------777--79-999999---555--52-222222-2-222222-
    e---------------7-777777---------0-000000-0-000000-
    
    e-5b7
    b----
    g----
    d----
    a----
    e----
     

    Тональность:

    Это должно быть в ТОП-листе! - Топ-лист композиций



    Назад
    Рекомендуем посмотреть другие песни исполнителя «Air»:

    • Комменты Fb ()
    • Комменты ВК



    Добавить в Избранное Браузера
    Сохранить здесь Очистить


    x

    0


    +
    -

    +
    -

    -

    Авторизация





    Зарегистрироваться

    M

    Дата и время

    • 14:45:49
       

    Социальные ссылки


    Наши приложения

    • Muzbank App Play Market
    • Muzbank Amazon App