MUZBANK



A Most Complete Bank Of Music Information

МУЗЫКАЛЬНО-ИНФОРМАЦИОННЫЙ БАНК

Поиск по сайту







    ААлбениз Матео • Соната в D (аккорды и текст - chords & lyrics)


    266

    Print

    Видео «Соната в D (Албениз Матео)»

    Видео клипы к песне подбираются автоматически сайтом youtube. Возможны некоторые несоответствия клипов песне.

    ↑ Спрятать рекламу ↑



    Download


    Строй: DADGBE
    Размер: 6/8
    громко и живо
    E|-------------------------------|-----------------2---------5-|
    B|-------------------------------|-------3--------------3------|
    G|*--------------------------2---|------------2----------------|
    D|*------0---------4-------------|--0--------------------------|
    A|------------0---------5--------|-----------------------------|
    D|--0----------------------------|-----------------------------|
    
    E|------7--------------3----------|----------------------------|
    B|------8--------------5----------|----------------------------|
    G|-----------7--------------6-----|--------------------------2-|
    D|--------------------------------|------0---------4-----------|
    A|----------------0---------------|-----------0---------5------|
    D|-5------------------------------|-0--------------------------|
    
    E|----------------2---------5-----|------7--------------3------|
    B|------3--------------3----------|------8--------------5------|
    G|-----------2--------------------|-----------7--------------6-|
    D|-0------------------------------|----------------------------|
    A|--------------------------------|----------------0-----------|
    D|--------------------------------|-5--------------------------|
    
    E|--------------------------------|----------------------------|
    B|----------------------10---8----|-7----10---8----7----10---8-|
    G|--7-------------------11---9----|-7----11---9----7----11---9-|
    D|--------------------------------|----------------------------|
    A|--------------------------------|----------------------------|
    D|--0-----------------------------|----------------------------|
    
    E|-----------------------5--------|------7--------------3------|
    B|-8h10p8----7-----------7--------|------8--------------5------|
    G|-9---------7---------------7----|-----------7--------------6-|
    D|--------------------------------|----------------------------|
    A|--------------------------------|----------------0-----------|
    D|--------------------------------|-5--------------------------|
    
    E|--------------------------------|----------------------------|
    B|-3------------------------------|----------------------------|
    G|------2--------------2----0-----|------2----0---------2----0-|
    D|-----------4---------4----2-----|-4----4----2----4----4----2-|
    A|----------------5---------------|-5--------------5-----------|
    D|-0------------------------------|----------------------------|
    
    E|--------------------------------|----------------------------|
    B|--------------------------------|------0---------------------|
    G|-0h2p0----------------2---------|------0--------------0------|
    D|-2---------4----------4---------|-----------0---------2------|
    A|-----------5---------------5----|----------------0---------4-|
    D|--------------------------------|-5--------------------------|
    
    E|--------------------------------|---------------------2----5-|
    B|--------------------------------|------3---------3-----------|
    G|--------------------------------|-----------2----------------|
    D|-0----0----0----0----0----0-----|-0--------------------------|
    A|--------------------------------|----------------------------|
    D|-0------------------------------|----------------------------|
    
    E|-5---------3----3---------------|----------------------------|
    B|--------------------------------|------2----0----2----3----5-|
    G|-6---------4----4---------------|----------------------------|
    D|-0----0----0----0----0----0-----|-0--------------------------|
    A|--------------------------------|----------------------------|
    D|--------------------------------|----------------------------|
    
    E|-------------------------------|---------------------2-----5-|
    B|-5---------3----3--------------|------3---------3------------|
    G|-4-----------------------------|-----------2-----------------|
    D|-----------4----4--------------|-----------------------------|
    A|-5-----------------------------|-----------------------------|
    D|-0----0----0----0----0----0----|-0---------------------------|
    
    E|-5---------3----3---------------|----------------------------|
    B|-5------------------------------|------2----0----2----3----5-|
    G|-6---------4----4---------------|----------------------------|
    D|-0----0----0----0----0----0-----|-0--------------------------|
    A|--------------------------------|----------------------------|
    D|--------------------------------|----------------------------|
    
    E|--------------------------------|----------------------------|
    B|-3----3----3----3----3----3-----|-3-------------------6----8-|
    G|-2----2----2----2----2----2-----|-2--------------------------|
    D|-4----4----4----4----4----4-----|-4--------------------------|
    A|--------------------------------|----------------------------|
    D|-0--------------0---------------|-0--------------------------|
    
    E|-5--------------5---------------|-6--------------5----6----5-|
    B|------6----8---------6----8-----|----------------------------|
    G|--------------------------------|-0--------------------------|
    D|-0--------------0---------------|----------------3-----------|
    A|--------------------------------|----------------------------|
    D|--------------------------------|----------------------------|
    
    E|-3----1----0----1----0----1-----|-1h3p1p0--------------------|
    B|--------------------------------|-3-------------------6----8-|
    G|--------------------------------|----------------------------|
    D|-2--------------0---------------|----------------------------|
    A|--------------------------------|------------0---------------|
    D|--------------------------------|----------------------------|
    
    						pm..............
    E|-5--------------5---------------|-6--------------5----6----5-|
    B|------6----8---------6----8-----|----------------------------|
    G|--------------------------------|-0--------------------------|
    D|-0--------------0---------------|----------------3-----------|
    A|--------------------------------|----------------------------|
    D|--------------------------------|----------------------------|
    
       pm..........................
    E|-3----1----0----1----0----1-----|-5----5----5----5----5----5-|
    B|--------------------------------|-5----5----5----5----5----5-|
    G|--------------------------------|-6----6----6----6----6----6-|
    D|-2--------------0---------------|----------------------------|
    A|--------------------------------|-0--------------0-----------|
    D|--------------------------------|----------------------------|
    
    E|-5-----------------------------|-----------------------------|
    B|-5---10p8-----------8p6--------|------10p8----------8p6------|
    G|-6------------------------9p7--|-6-----------------------9p7-|
    D|-7-----------------------------|-7---------------------------|
    A|-0-----------------------------|-0---------------------------|
    D|----------------8--------------|----------------8------------|
    
    E|-5----5----5----5----5----5-----|-5--------------------------|
    B|-5----5----5----5----5----5-----|-5--------------------------|
    G|-6----6----6----6----6----6-----|-6-------------------2----4-|
    D|--------------------------------|-7--------------------------|
    A|-0--------------0---------------|-0--------------------------|
    D|--------------------------------|----------------------------|
    
    E|----------------2----3----5-----|-7-----------7----------7-|
    B|-2----3----5--------------------|-0-----------0------------|
    G|--------------------------------|-7-----------7------------|
    D|--------------------------------|-5------------------------|
    A|--------------------------------|--------------------------|
    D|--------------------------------|-------------5------------|
    
    E|-5----3----2----3----2----0-----|----------------------------|
    B|--------------------------------|-3--------------------------|
    G|-2------------------------------|------2--------------2----4-|
    D|--------------------------------|-----------4----------------|
    A|----------------0---------------|----------------5-----------|
    D|--------------------------------|-0--------------------------|
    
    E|----------------2----3----5-----|-7-----------7----------7-|
    B|-2----3----5--------------------|-0-----------0------------|
    G|--------------------------------|-7-----------7------------|
    D|--------------------------------|-5------------------------|
    A|--------------------------------|--------------------------|
    D|--------------------------------|-------------5------------|
    
    E|-5----3----2----3----2----0-----|----------------------------|
    B|--------------------------------|-3-------------------5-p--3-|
    G|-2------------------------------|------2---------------------|
    D|--------------------------------|-----------4----------------|
    A|----------------0---------------|----------------5-----------|
    D|--------------------------------|-0--------------------------|
    
    E|--------------------------------|-----------||---------------|
    B|------3-------------------------|-----------||--------3------|
    G|-2---------2---------2----------|----------*||*------------5-|
    D|----------------4---------4-----|-0--------*||*--------------|
    A|--------------------------------|-----------||---------------|
    D|--------------------------------|-0---------||---------------|
    
    E|--------------------------------|----------------------------|
    B|------3--------------3----------|---------------------3------|
    G|-2---------5----2---------5-----|-5p3-------2--------------5-|
    D|-0--------------4---------------|-5---------4----------------|
    A|--------------------------------|----------------------------|
    D|--------------------------------|----------------------------|
    
    E|--------------------------------|----------------------------|
    B|-1------------------------------|---------------------3------|
    G|------3----2----3----2----0-----|-0-h-2p0------------------5-|
    D|----------------1---------------|-0---------4----------------|
    A|-3------------------------------|----------------------------|
    D|--------------------------------|-0--------------------------|
    
    E|--------------------------------|----------------------------|
    B|------3--------------3----------|---------------------3------|
    G|-2---------5----2---------5-----|-3-h-5p3---2--------------5-|
    D|-0--------------4---------------|-5---------4----------------|
    A|--------------------------------|----------------------------|
    D|--------------------------------|----------------------------|
    
    E|--------------------------------|----------------------------|
    B|-1------------------------------|-3----3----3----3----3----3-|
    G|------3----2----3----2----0-----|-2----2----2----2----2----2-|
    D|----------------1---------------|-4----4----4----4----4----4-|
    A|-3------------------------------|-5--------------5-----------|
    D|--------------------------------|----------------------------|
    
    E|--------------------------------|----------------------------|
    B|-3-------------------3----4-----|-6----8----6----6----8----6-|
    G|-2------------------------------|-7--------------5-----------|
    D|-4------------------------------|-8--------------7-----------|
    A|-5------------------------------|----------------------------|
    D|-0------------------------------|----------------------------|
    
    E|--------------------------------|-3-p-1----------------------|
    B|-6------------8p6p4-------------|-----------4----3-p-1-------|
    G|-7---------------------7p5p3----|--------------------------3-|
    D|-8------------------------------|-1--------------2-----------|
    A|--------------------------------|----------------------------|
    D|--------------------------------|----------------------------|
    
    E|--------------------------------|----------------------------|
    B|---------------------3----4-----|-6----8----6----6----8----6-|
    G|-3--------2---------------------|-7--------------5-----------|
    D|-3------------------------------|-8--------------7-----------|
    A|--------------------------------|----------------------------|
    D|--------------------------------|----------------------------|
    
    E|--------------------------------|-3-p-1----------------------|
    B|-6------------8p6p4-------------|-----------4----3-p-1-------|
    G|-7---------------------7p5p3----|--------------------------3-|
    D|-8------------------------------|-1--------------2-----------|
    A|--------------------------------|----------------------------|
    D|--------------------------------|----------------------------|
    
    E|--------------------------------|----------------------------|
    B|---------------------4----3-----|-3----4----3----3----4----3-|
    G|-3--------2---------------------|-2--------------3-----------|
    D|-3------------------------------|-4--------------5-----------|
    A|--------------------------------|----------------------------|
    D|--------------------------------|----------------------------|
    
    E|--------------------------------|----------------------------|
    B|-3------------------------------|-4-p-3----------------------|
    G|-2------------5p3p2p0-----------|-----------5----3-p-2-----0-|
    D|-4----------------------4h5-----|----------------1-----------|
    A|--------------------------------|-3--------------------------|
    D|--------------------------------|----------------------------|
    
    E|--------------------------------|----------------------------|
    B|---------------------4----3-----|-3----4----3----3----4----3-|
    G|-0h2p0--------------------------|-2--------------3-----------|
    D|----------4---------------------|-4--------------5-----------|
    A|--------------------------------|----------------------------|
    D|-0------------------------------|----------------------------|
    
    E|--------------------------------|----------------------------|
    B|-3------------------------------|-4-p-3----------------------|
    G|-2------------5p3p2p0-----------|-----------5----3-p-2-----0-|
    D|-4----------------------4h5-----|----------------1-----------|
    A|--------------------------------|-3--------------------------|
    D|--------------------------------|----------------------------|
    
    E|--------------------------------|----------------------------|
    B|-3----3----3----3----3----3-----|-3--------------------------|
    G|-2----2----2----2----2----2-----|-2------------------0-----2-|
    D|-4----4----4----4----4----4-----|-4--------------------------|
    A|-5--------------5---------------|-5--------------------------|
    D|--------------------------------|-0--------------------------|
    
    E|----------------2----3----5-----|-7-----------7----------7-|
    B|------3----5--------------------|-0-----------0------------|
    G|--------------------------------|-7-----------7------------|
    D|-0------------------------------|-5------------------------|
    A|--------------------------------|--------------------------|
    D|--------------------------------|-------------5------------|
    
    E|-5----3----2----3----2----0-----|----------------------------|
    B|--------------------------------|-3--------------------------|
    G|-2------------------------------|------2---------------------|
    D|--------------------------------|-----------4---------0----2-|
    A|----------------0---------------|----------------5-----------|
    D|--------------------------------|-0--------------------------|
    
    E|----------------2----3----5-----|-7-----------7----------7-|
    B|------3----5--------------------|-0-----------0------------|
    G|--------------------------------|-7-----------7------------|
    D|-0------------------------------|-5------------------------|
    A|--------------------------------|--------------------------|
    D|--------------------------------|-------------5------------|
    
    E|-5----3----2----3----2----0-----|---------------------0------|
    B|--------------------------------|-3------------------------3-|
    G|-2------------------------------|------2---------------------|
    D|--------------------------------|-----------4----------------|
    A|----------------0---------------|----------------5-----------|
    D|--------------------------------|-0--------------------------|
    
    E|------0----3--------------0-----|---------------------0------|
    B|-2-------------------2----------|-3------------------------3-|
    G|-0--------------0---------------|------2---------------------|
    D|--------------------------------|-4--------------0-----------|
    A|-0------------------------------|-----------0----------------|
    D|--------------------------------|----------------------------|
    
    E|------0----3--------------0-----|----------------------------|
    B|-2-------------------2----------|-3-----------------10-----8-|
    G|-0--------------0---------------|-2-----------------11-----9-|
    D|--------------------------------|-4--------------------------|
    A|-0------------------------------|----------------------------|
    D|--------------------------------|----------------------------|
    
    E|--------------------------------|--------------------5-------|
    B|-7----10---8----7----10---8-----|-8h10p8-----7-------7-------|
    G|-7----11---9----7----11---9-----|-9----------7-------------7-|
    D|--------------------------------|----------------------------|
    A|--------------------------------|----------------------------|
    D|--------------------------------|----------------------------|
    
    E|------7--------------3----------|----------------------------|
    B|------8--------------5----------|-3--------------------------|
    G|-----------7--------------6-----|------2--------------2----0-|
    D|--------------------------------|-----------4---------4----2-|
    A|----------------0---------------|----------------5-----------|
    D|-5------------------------------|----------------------------|
    
    E|--------------------------------|----------------------------|
    B|--------------------------------|----------------------------|
    G|------2----0---------2----0-----|-0h2p0---------------2------|
    D|-4----4----2----4----4----2-----|-2--------4----------4------|
    A|-5--------------5---------------|----------5---------------5-|
    D|-0------------------------------|----------------------------|
    
    E|--------------------------------|--------------|
    B|------0-------------------------|-3------------|
    G|------0--------------0----------|------------*-|
    D|-----------0---------2----------|-0----------*-|
    A|----------------0---------4-----|--------------|
    D|-5------------------------------|-0------------|
    

    Тональность:

    Нет текста!



    Назад

    • Комментарии Facebook ()
    • Комментарии ВКонтакте



    Добавить в Избранное Браузера
    Сохранить здесь Очистить


    x

    0


    +
    -

    +
    -

    -

    Авторизация





    Зарегистрироваться

    M

    Дата и время

    • 21:42:06
       

    Социальные ссылки


    Наши приложения

    • Muzbank App Play Market
    • Muzbank Amazon App