MUZBANK



A Most Complete Bank Of Music Information

МУЗЫКАЛЬНО-ИНФОРМАЦИОННЫЙ БАНК

Поиск по сайту







    AAlien Ant Farm • Calico (аккорды и текст - chords & lyrics)


    271

    Print

    Видео «Calico (Alien Ant Farm)»

    Видео клипы к песне подбираются автоматически сайтом youtube. Возможны некоторые несоответствия клипов песне.

    ↑ Спрятать рекламу ↑



    Download



     
    
    
    Tabbed by: Tom Piddock (pid_182@yahoo.co.uk)
    
    Standard tuning:
    
    Intro and Verse:
    E------------------------------------------------------
    B----------------222222-111111-------------------------
    G---------333333-313131-101010-------------------------
    D--444444-434343---------------------------------------
    A--646464----------------------646464646464434343------
    E------------------------------------------------646400
    
    Pre-Verse:   
    E-------------------------
    B-------------------------
    G-------------------------
    D--4--8--4--11--4--8--4--6
    A--4--8--4--11--4--8--4--6
    E--2--6--2--9---2--6--2--4
    
    Chorus:
    E--2--4--5--7
    B--2--4--5--7
    G--3--5--6--8
    D--4--6--7--9
    A--4--6--7--9
    E--2--4--5--7
    
    Octave Solo:
    E------------------------------------------
    B------------------------------------------
    G--6-8-10-11-10-8-6-5--6-8-10-11-13-11-10-8
    D------------------------------------------
    A--4-6-8--9--8--6-4-3--4-6-8--9--11--9--8-6
    E------------------------------------------
    
    E---------------------------
    B---------------------------
    G--11-6-10-4-6-8-13-11--10-8
    D---------------------------
    A--9--4-8--2-4-6-11--9--8--6
    E---------------------------    x2
    
    Breakdown:
    
    E-6-2-4-5--------2-4-5-2
    B-6-2-4-5-7-9-10-2-4-5-2
    G-7-3-5-6-6-8-9--3-5-6-3
    D-8-4-6-7-4-6-7--4-6-7-4
    A-8-4-6-7--------4-6-7-4
    E-6-2-4-5--------2-4-5-2
    
    any queries then mail me.
     

    Тональность:

    Нет текста!



    Назад
    Рекомендуем посмотреть другие песни исполнителя «Alien Ant Farm»:

    • Комментарии Facebook ()
    • Комментарии ВКонтакте



    Добавить в Избранное Браузера
    Сохранить здесь Очистить


    x

    0


    +
    -

    +
    -

    -

    Авторизация





    Зарегистрироваться

    M

    Дата и время

    • 11:41:06
       

    Социальные ссылки


    Наши приложения

    • Muzbank App Play Market
    • Muzbank Amazon App