MUZBANK



A Most Complete Bank Of Music Information

МУЗЫКАЛЬНО-ИНФОРМАЦИОННЫЙ БАНК

Поиск по сайту







    AAlien Ant Farm • Movies (аккорды и текст - chords & lyrics)


    278

    Print

    Видео «Movies (Alien Ant Farm)»

    Видео клипы к песне подбираются автоматически сайтом youtube. Возможны некоторые несоответствия клипов песне.

    ↑ Спрятать рекламу ↑



    Download



     
    
    
    -----------------------------------------------------------------------------
    			     movies- alin ant farm
    -----------------------------------------------------------------------------
    Tabbed by:counting on me
    Email:titofotito86@hotmail.com
    
    Tuning:1/2 down
    Intro & verse
    be|-------------------------------------------------------------------------|
    bB|-------------------------------------------------------------------------|
    bG|-9/10-xx-xxxx------------------------------------------------------------|
    bD|-9/10-xx-xxxx---8/7-3~---------------------------------------------------|
    bA|-7/8--xx-xxxx------------------------------------------------------------|
    bE|-------------------------------------------------------------------------|
    chorus
    e|--------------------------------------------------------------------------|
    B|--------------------------------------------------------------------------|
    G|--------------------------------------------------------------------------|
    D|-8-8888/7-55/8-10-3-5-----------------------------------------------------|
    A|-8-8888/7-55/8-10-3-5-----------------------------------------------------|
    E|-6-6666/5-33/6-8--1-5-----------------------------------------------------|
    Verse
    Pre-chorus
    e|--------------------------------------------------------------------------|
    B|--------------------------------------------------------------------------|
    G|---------------------------------------------------------------------------
    D|--------------------------------------------------------------------------|
    A|-12-12121212-1515-1010101010-1212-77777-1010101010------------------------|
    E|-10-10101010-1313-8-8-8-8-8--1010-55555-8-8-8-8-8-------------------------|
    Chorus
    e|--------------------------------------------------------------------------|
    B|--------------------------------------------------------------------------|
    G|-----------------------3-2-0----------------------------------------------|
    D|-8-8888/7-55/8-10-3-5--------3--------------------------------------------|
    A|-8-8888/7-55/8-10-3-5-----------------------------------------------------|
    E|-6-6666/5-33/6-8--1-5-----------------------------------------------------|
    Interlude
    Many times
    e|--------------------------------------------------------------------------|
    B|--------------------------------------------------------------------------|
    G|--------------------------77----------------------------------------------|
    D|--7-----------------------77-55-------------------------------------------|
    A|--7-----------------------77-55—x3----------------------------------------|
    E|--5—----------------------55-55-------------------------------------------|
       Pm
    Last chorus
    e|---------------------------------------------------------------------------
    B|--------------------------------------------------------------------------|
    G|----------------------3-2-0-----------------------------------------------|
    D|-8-8888/7-55/8-10-3-5-------3---------------------------------------------|
    A|-8-8888/7-55/8-10-3-5---------5-3-0---------------------------------------|
    E|-6-6666/5-33/6-8--1-5---------------1-------------------------------------|
     

    Тональность:

    Нет текста!



    Назад
    Рекомендуем посмотреть другие песни исполнителя «Alien Ant Farm»:

    • Комментарии Facebook ()
    • Комментарии ВКонтакте



    Добавить в Избранное Браузера
    Сохранить здесь Очистить


    x

    0


    +
    -

    +
    -

    -

    Авторизация





    Зарегистрироваться

    M

    Дата и время

    • 21:20:02
       

    Социальные ссылки


    Наши приложения

    • Muzbank App Play Market
    • Muzbank Amazon App