MUZBANK



A Most Complete Bank Of Music Information

МУЗЫКАЛЬНО-ИНФОРМАЦИОННЫЙ БАНК

Поиск по сайту







    ААлиса • Дурак и Солнце (аккорды и текст - chords & lyrics)


    466

    Print

    Видео «Дурак и Солнце (Алиса)»

    Видео клипы к песне подбираются автоматически сайтом youtube. Возможны некоторые несоответствия клипов песне.

    ↑ Спрятать рекламу ↑



    Download



     Intro.
    
    E|--0-3-5---3-5-3--------------------3-------------------------|
    B|------------------5-3-5------3-5-6---5-----------------------|
    G|---------------------------5-------------4---2-0-2-----------|
    D|-----------------------------------------------------2р0h2---|
    A|-----------------------------------------------------------0-|
    E|-------------------------------------------------------------|
    
    E|------------------------------0-3-5---3-5-3------------------|
    B|----------------------------------------------5-3-5----------|
    G|------2---4-2-4---5-4-5--------------------------------------|
    D|--2-5--------------------------------------------------------|
    A|-------------------------------------------------------------|
    E|-------------------------------------------------------------|
    
                         Dm
    Не бог весть, черти как
                    F
    Жил на свете дурак
                    Dm  G            Am
    Без царя в голове, сам как на ладони
    В тех краях, где угар,
    Голод, мор, да пожар,
    Где дым стада облаков по земле гонит.
    
    Так он в копоти жил,
    Не петлял, не кружил.
    Верой-правдой служил, ветру настежь душу.
    Как солнце нашел,
    Да по звездам прошел,
    Я тебе расскажу - слушай.
    
               F               C         Am
          За тридевять земель неба на краю
            F      G   Em                        Am
          Пляшет мрак по трухлявым перекошеным пням,
                          F
          Да наводит на свет
           Em          Am
          Серый пепел порчи
          F                  C              Am
          А над всей землей солнца нет сто лет
                             F          G        Am
          Только ночь, да разорванных звезд клочья
    
    E|-------------------------------------------------------------|
    B|-------------------------------------------------------------|
    G|-------------------------------------------------------------|
    D|---5-7--5-7-5------------------------------------------------|
    A|-7-------------7-5-7--7-5-3/7--0-3-3р0h3---0h3h5~---3h5h7/12-|
    E|-------------------------------------------------------------|
    
    E|-------------------------------------------------------------|
    B|----------------------------------13-15-17р15р13h15р13h15h17р|
    G|----------------------12(14)12-14----------------------------|
    D|-------10h12(14)12р10----------------------------------------|
    A|-10h12-------------------------------------------------------|
    E|-------------------------------------------------------------|
    
    E|-------------------------------------------------------------|
    B|--р15р13h15р13h15h17р15р13h15р13h15h17-----------------------|
    G|-------------------------------------------------------------|
    D|-------------------------------------------------------------|
    A|-------------------------------------------------------------|
    E|-------------------------------------------------------------|
    
    E|-15h17р15р12h15-15/17~-15h17р15~-----------------------------|
    B|-------------------------------------------------------------|
    G|-------------------------------------------------------------|
    D|-------------------------------------------------------------|
    A|-------------------------------------------------------------|
    E|-------------------------------------------------------------|
    
    E|--12р10h12~~~--|
    B|---------------|
    G|---------------|
    D|---------------|
    A|---------------|
    E|---------------|
    
    А народ в тех краях
    В мути, в темени чах.
    И, не сразу, не вдруг, но забыл, что жил иначе.
    В хороводе ночей
    Стыло пламя очей
    И со временем в тех краях не осталось зрячих.
    
           Лед пустых глазниц, оторопь сердец,
           Кривотолков чад гонит дурака по сонной земле,
           Где не стынет закат,
           Где не плещут зори.
           Сколько лет в пути, а сколько впереди,
           Как найти да помочь дураку одолеть горе.
    
    C5/A5    G5/D#5
    
         A5                         E5
        На краю небес вырывает бес из волос репьи-мраки.
         A5                               E5
        Да блюет на свет звездами побед, беса не унять в драке.
         D5                             E5
        Разметать репьи по краям земли нынче дураку сила
         A5                              E5                     Am
        Да с небес сорвать бешеную тать солнцу помоги, милый!
    
                                      Dm
           Кто видел, как по небу плывет огонь,
                                  Am
           Какая в синем радость золотого.
                                     Dm
           Как к водопою спускается белый конь,
                                            Am
           Как отражают солнца свет его подковы.
                                      Dm
           Как в облаках искрятся ресницы зорь,
                                             Am
           Как от росы скользят по травам переливы.
                                      Dm
           Кто видел, как из сердца уходит боль
                                              Am     E
           Как хорошо тогда, легко, и как красиво.
    
    Ни в аду, ни в раю,
    А на самом краю,
    Где землей отрадясь правил бледный почерк
    Чтобы свет разметать
    Над землею опять
    Бился с мутью дурень три дня и три ночи.
    
           Свет осенних звезд вплел в прядь своих волос,
           Солнца луч был в его руке сияньем клинка,
           Где кровавый закат
           Да златые кольца
           Я там тоже был, этот сказ сложил,
           А над нами по сей день горит солнце.
    
    E|-------------------------------------------------------------|
    B|-------------------------------------------------------------|
    G|-------------------------------------------------------------|
    D|---5-7--5-7-5------------------------------------------------|
    A|-7-------------7-5-7--7-5-3/7--0-3-3р0h3--0h3h5~--3h5h7/12---|
    E|-------------------------------------------------------------|
    
    E|-----------------------------------15-17-15-12h15h17р15р12h15
    B|----------------------10-12-13-/17---------------------------|
    G|--------------9-10-12----------------------------------------|
    D|----10-12(14)------------------------------------------------|
    A|-12----------------------------------------------------------|
    E|-------------------------------------------------------------|
    
    E|р12--12h15р12h15р12--12--------------------------------------|
    B|---15--------------15--15-13-12--12-13-15(17)-15h17р15р13-12~|
    G|-------------------------------14----------------------------|
    D|-------------------------------------------------------------|
    A|-------------------------------------------------------------|
    E|-------------------------------------------------------------|
    
    E|-------------|
    B|-------------|
    G|--14р12h14---|
    D|-------------|
    A|-------------|
    E|-------------|
      Intro.
    

    Тональность:

    Нет текста!



    Назад
    Рекомендуем посмотреть другие песни исполнителя «Алиса»:

    • Комментарии Facebook ()
    • Комментарии ВКонтакте



    Добавить в Избранное Браузера
    Сохранить здесь Очистить


    x

    0


    +
    -

    +
    -

    -

    Авторизация





    Зарегистрироваться

    M

    Дата и время

    • 05:13:58
       

    Социальные ссылки


    Наши приложения

    • Muzbank App Play Market
    • Muzbank Amazon App