MUZBANK



A Most Complete Bank Of Music Information

МУЗЫКАЛЬНО-ИНФОРМАЦИОННЫЙ БАНК

Поиск по сайту







    AAlkaline Trio • Cringe (аккорды и текст - chords & lyrics)


    249

    Print

    Видео «Cringe (Alkaline Trio)»

    Видео клипы к песне подбираются автоматически сайтом youtube. Возможны некоторые несоответствия клипов песне.

    ↑ Спрятать рекламу ↑



    Download



     
    
    
    Author/Artist: Alkaline Trio
    Title: Cringe
    Album: Goddamnit
    Transcribed by: Jim Taone
    Email: j_bro124@hotmail.com
    
    Cringe is the opener off of Goddamnit, and
    a great song; simple, quick, to the point...
    
    enjoy,
    jim
    
    
    Intro:
    ------------------------------------------------------|
    ------------------------------------------------------|
    --------------10-10-10-10----------------10-10-10-10--|
    -10-10-10-10--10-10-10-10---10-10-10-10--10-10-10-10--|
    -10-10-10-10--7--7--8--8----10-10-10-10--7--7--8--8---|
    -8--8--8--8-----------------8--8--8--8----------------|
                                                                                  
    
    Verse:
    ---------------------------------|
    ---------------------------------|
    --------------------10-10-10-10--|
    -10-10-10-10-10-10--10-10-10-10--|
    -10-10-10-10-10-10--7--7--8--8---|
    -8--8--8--8--8--8----------------|
                                                                                  
    
    Pre-chorus:
    --------------------------------|
    -1-1-1-1-0-1-0---0-0-0-0-1-3-1--|
    -2-2-2-2-2-2-2---2-2-2-2-2-2-2--|
    -2-2-2-2-2-2-2---2-2-2-2-2-2-2--|
    -0-0-0-0-0-0-0---0-0-0-0-0-0-0--|
    --------------------------------|
                                                                                  
    
    Pre-chorus 2:
    -------------------|
    -------------------|
    -------------------|
    -3-3-3-3-3-3----5--|
    -3-3-3-3-3-3----5--|
    -1-1-1-1-1-1----3--|
                                                                                  
    
    Chorus:
    -----------------------------|
    -----------------------------|
    -2-2-------------------------|
    -2-2----2-2-----3-3-----5-5--|
    -0-0----2-2-----3-3-----5-5--|
    --------0-0-----1-1-----3-3--|
                                                                                  
    
    Interlude:
    -------------------------------------------------------|
    -------------------------------------------------------|
    -x--5-5-5-5-2-2-2-2--12-12-12-12--10-10-10-9-9-7-7-5--|
    -x--5-5-5-5-2-2-2-2--x--x--x--x---x--x--x--x-x-x-x-x--|
    -x--3-3-3-3-0-0-0-0--10-10-10-10--8--8--8--7-7-5-5-3--|
    -------------------------------------------------------|
                                                                                  
    
    Chord used for post interlude: (also song ends on this chord)
    -----|
    -----|
    -5---|
    -5---|
    -3---|
    -----|
                                                                                  
    
    Songflow:
    Intro 2x
    Verse 2x
    Pre-chorus 1
    Intro
    Verse 
    Pre-chorus 1
    Pre-chorus 2
    Chorus 2x
    Intro 2x
    Verse 2x
    Pre-chorus 1
    Verse 2x
    Pre-chorus 1
    Interlude 2x
    Post interlude chord play on-time
    Pre-chorus 1
    Pre-chorus 2
    End with above chord
    
    Questions, comments, corrections e-mail me at: j_bro124@hotmail.com
     

    Тональность:

    Нет текста!



    Назад
    Рекомендуем посмотреть другие песни исполнителя «Alkaline Trio»:

    • Комментарии Facebook ()
    • Комментарии ВКонтакте



    Добавить в Избранное Браузера
    Сохранить здесь Очистить


    x

    0


    +
    -

    +
    -

    -

    Авторизация





    Зарегистрироваться

    M

    Дата и время

    • 17:49:45
       

    Социальные ссылки


    Наши приложения

    • Muzbank App Play Market
    • Muzbank Amazon App