MUZBANK



A Most Complete Bank Of Music Information

МУЗЫКАЛЬНО-ИНФОРМАЦИОННЫЙ БАНК

Поиск по сайту







    AAlkaline Trio • If We Never Go Inside (аккорды и текст - chords & lyrics)


    246

    Print

    Видео «If We Never Go Inside (Alkaline Trio)»

    Видео клипы к песне подбираются автоматически сайтом youtube. Возможны некоторые несоответствия клипов песне.

    ↑ Спрятать рекламу ↑



    Download


     
    
    
    ----------------------------------------------------------------------------
                       If We Never Go Inside - Alkaline Trio
    ----------------------------------------------------------------------------
    Tabbed by:  Zach
    Email:  strings_of_fire999@hotmail.com
    
    Tuning:  E A D G B E
    
    
    Song Flow
    
    Intro
    Verse 1
    Chorus
    Verse 2
    Chorus (2x)
    Bridge (2x)
    verse 3
    Chorus
    
    
    Intro
      
    e|------------------------------------------------------------------------|
    B|------------------------------------------------------------------------|
    G|------------------------------------------------------------------------|
    D|6-6-6-7-7-7-6-6-6-7-7-7-2-2-4-4-6-6-6-7-7-7-6-6-6-7-7-7-2-2-4-4---------|
    A|0-0-0-0-0-0-0-0-0-0-0-0-0-0-0-0-4-4-4-4-4-4-4-4-4-4-4-4-0-0-0-0---------|
    E|------------------------------------------------------------------------|
    
    e|------------------------------------------------------------------------|
    B|------------------------------------------------------------------------|
    G|------------------------------------------------------------------------|
    D|9-9-9-9-9-9-9-9-4-4-4-4-4-4-4-4-2-2-2-2-4-4-4-4-6-6-6-6-7-7-7-7---------|
    A|7-7-7-7-7-7-7-7-2-2-2-2-2-2-2-2-0-0-0-0-0-0-0-0-0-0-0-0-0-0-0-0---------|
    E|------------------------------------------------------------------------|
    
    e|------------------------------------------------------------------------|
    B|------------------------------------------------------------------------|
    G|------------------------------------------------------------------------|
    D|6-6-6-7-7-7-6-6-6-7-7-7-2-2-4-4-6-6-6-7-7-7-6-6-6-7-7-7-2-2-4-4---------|
    A|0-0-0-0-0-0-0-0-0-0-0-0-0-0-0-0-4-4-4-4-4-4-4-4-4-4-4-4-0-0-0-0---------|
    E|------------------------------------------------------------------------|
    
    e|------------------------------------------------------------------------|
    B|------------------------------------------------------------------------|
    G|------------------------------------------------------------------------|
    D|9-9-9-9-9-9-9-9-4-4-4-4-4-4-4-4-2-2-2-2-4-4-4-4-6-6-6-6-7-7-7-7---------|
    A|7-7-7-7-7-7-7-7-2-2-2-2-2-2-2-2-0-0-0-0-0-0-0-0-0-0-0-0-0-0-0-0---------|
    E|------------------------------------------------------------------------|
     
    e|------------------------------------------------------------------------|
    B|------------------------------------------------------------------------|
    G|---(palm muted)---------------------------------------------------------|
    D|6-6-6-6-6-6-7-7-7-7-7-7-2-2-4-4-----------------------------------------|
    A|0-0-0-0-0-0-0-0-0-0-0-0-0-0-0-0-----------------------------------------|
    E|------------------------------------------------------------------------|
    
    
    
    Verse I (palm muted)
    
      (2x)
    e|------------------------------------------------------------------------|
    B|------------------------------------------------------------------------|
    G|------------------------------------------------------------------------|
    D|6-6-6-6-6-6-6-6--9-9-9-9-9-9-9-9--2-2-2-2-4-4-4-4-6-6-6-6-7-7-7-7-------|
    A|4-4-4-4-4-4-4-4--7-7-7-7-7-7-7-7--0-0-0-0-0-0-0-0-0-0-0-0-0-0-0-0-------|
    E|------------------------------------------------------------------------|
    
    e|------------------------------------------------------------------------|
    B|------------------------------------------------------------------------|
    G|------------------------------------------------------------------------|
    D|6-6-6-6-6-6-6-6--9-9-9-9-9-9-9-9--4-4-4-4-4-4-4-4--2-2-2-2-2-2-2-2------|
    A|4-4-4-4-4-4-4-4--7-7-7-7-7-7-7-7--2-2-2-2-2-2-2-2--0-0-0-0-0-0-0-0------|
    E|------------------------------------------------------------------------|
    
    e|------------------------------------------------------------------------|
    B|------------------------------------------------------------------------|
    G|------------------------------------------------------------------------|
    D|9-9-9-9-9-9-9-9--4-4-4-4-4-4-4-4--2-2-2--4-4-4--6-6-6--7-7-7------------|
    A|7-7-7-7-7-7-7-7--2-2-2-2-2-2-2-2--x-x-0--x-x-0--x-x-0--x-x-0------------|
    E|------------------------------------------------------------------------|
    
    e|------------------------------------------------------------------------|
    B|------------------------------------------------------------------------|
    G|------------------------------------------------------------------------|
    D|9-9-9-9-9-9-9-9--4-4-4-4-4-4-4-4--2-2-2-2-2-2-2-2-----------------------|
    A|7-7-7-7-7-7-7-7--2-2-2-2-2-2-2-2--0-0-0-0-0-0-0-0-----------------------|
    E|------------------------------------------------------------------------|
    
    e|------------------------------------------------------------------------|
    B|------------------------------------------------------------------------|
    G|------------------------------------------------------------------------|
    D|6-6-6-7-7-7-6-6-6-7-7-7-2-2-4-4-----------------------------------------|
    A|0-0-0-0-0-0-0-0-0-0-0-0-0-0-0-0-----------------------------------------|
    E|------------------------------------------------------------------------|
    
    
    
    Chorus
    
    e|------------------------------------------------------------------------|
    B|------------------------------------------------------------------------|
    G|-------4-4-4--2-2-2-2-2-2-2-2---------4-4-4--2-2-2-2-2-2-2-2------------|
    D|2-2-2--4-4-4--2-2-2-2-2-2-2-2--2-2-2--4-4-4--2-2-2-2-2-2-2-2------------|
    A|2-2-2--2-2-2--0-0-0-0-0-0-0-0--2-2-2--2-2-2--0-0-0-0-0-0-0-0------------|
    E|0-0-0--------------------------0-0-0------------------------------------|
    
    e|------------------------------------------------------------------------|
    B|------------------------------------------------------------------------|
    G|-----------------4-4-4-4-4-4-4-4--2-2-2-2-2-2-2-2-2-2-2-2-2-2-2-2-------|
    D|2-2-2-2-2-2-2-2--4-4-4-4-4-4-4-4--2-2-2-2-2-2-2-2-2-2-2-2-2-2-2-2-------|
    A|2-2-2-2-2-2-2-2--2-2-2-2-2-2-2-2--0-0-0-0-0-0-0-0-0-0-0-0-0-0-0-0-------|
    E|0-0-0-0-0-0-0-0---------------------------------------------------------|
    
    e|------------------------------------------------------------------------|
    B|------------------------------------------------------------------------|
    G|------------------------------------------------------------------------|
    D|6-6-6-7-7-7-6-6-6-7-7-7-2-2-4-4-----------------------------------------|
    A|0-0-0-0-0-0-0-0-0-0-0-0-0-0-0-0-----------------------------------------|
    E|------------------------------------------------------------------------|
    
    
    
    Verse 2 (palm muted)
    
    e|------------------------------------------------------------------------|
    B|------------------------------------------------------------------------|
    G|------------------------------------------------------------------------|
    D|6-6-6-6-6-6-6-6--9-9-9-9-9-9-9-9--2-2-2-2-4-4-4-4-6-6-6-6-7-7-7-7-------|
    A|4-4-4-4-4-4-4-4--7-7-7-7-7-7-7-7--0-0-0-0-0-0-0-0-0-0-0-0-0-0-0-0-------|
    E|------------------------------------------------------------------------|
    
    e|------------------------------------------------------------------------|
    B|------------------------------------------------------------------------|
    G|------------------------------------------------------------------------|
    D|6-6-6-6-6-6-6-6--9-9-9-9-9-9-9-9--4-4-4-4-4-4-4-4--2-2-2-2-2-2-2-2------|
    A|4-4-4-4-4-4-4-4--7-7-7-7-7-7-7-7--2-2-2-2-2-2-2-2--0-0-0-0-0-0-0-0------|
    E|------------------------------------------------------------------------|
    
    e|------------------------------------------------------------------------|
    B|------------------------------------------------------------------------|
    G|------------------------------------------------------------------------|
    D|9-9-9-9-9-9-9-9--4-4-4-4-4-4-4-4--2-2-2--4-4-4--6-6-6--7-7-7------------|
    A|7-7-7-7-7-7-7-7--2-2-2-2-2-2-2-2--x-x-0--x-x-0--x-x-0--x-x-0------------|
    E|------------------------------------------------------------------------|
    
    e|------------------------------------------------------------------------|
    B|------------------------------------------------------------------------|
    G|------------------------------------------------------------------------|
    D|9-9-9-9-9-9-9-9--4-4-4-4-4-4-4-4--2-2-2-2-2-2-2-2-----------------------|
    A|7-7-7-7-7-7-7-7--2-2-2-2-2-2-2-2--0-0-0-0-0-0-0-0-----------------------|
    E|------------------------------------------------------------------------|
    
    
    
    CHORUS (2x)
    
    
    
      Bridge (2x)
    e|------------------------------------------------------------------------|
    B|------------------------------------------------------------------------|
    G|9-9-9-9-9-9-8-8--11-11-11-11--9-9-9-9-----------------------------------|
    D|x-x-x-x-x-x-x-x--x--x--x--x---x-x-x-x--2-2-2-2-4-4-4-4-6-6-6-6-7-7-7-7--|
    A|7-7-7-7-7-7-6-6--9--9--9--9---7-7-7-7--0-0-0-0-0-0-0-0-0-0-0-0-0-0-0-0--|
    E|------------------------------------------------------------------------|
    
    
    
    Verse 3
    
    e|------------------------------------------------------------------------|
    B|------------------------------------------------------------------------|
    G|------------------------------------------------------------------------|
    D|6-6-6-6-6-6-6-6--9-9-9-9-9-9-9-9--2-2-2-2-4-4-4-4-6-6-6-6-6-6-----------|
    A|4-4-4-4-4-4-4-4--7-7-7-7-7-7-7-7--0-0-0-0-0-0-0-0-0-0-0-0-0-0-----------|
    E|------------------------------------------------------------------------|
    
    e|------------------------------------------------------------------------|
    B|------------------------------------------------------------------------|
    G|------------------------------------------------------------------------|
    D|6-6-6-6-6-6-6-6--9-9-9-9-9-9-9-9--2-2-2-2-4-4-4-4-6-6-6-6-7-7-7-7-------|
    A|4-4-4-4-4-4-4-4--7-7-7-7-7-7-7-7--0-0-0-0-0-0-0-0-0-0-0-0-0-0-0-0-------|
    E|------------------------------------------------------------------------|
    
    e|------------------------------------------------------------------------|
    B|------------------------------------------------------------------------|
    G|------------------------------------------------------------------------|
    D|6-6-6-6-6-6-6-6--9-9-9-9-9-9-9-9--2-2-2-2-4-4-4-4-6-6-6-6-6-6-----------|
    A|4-4-4-4-4-4-4-4--7-7-7-7-7-7-7-7--0-0-0-0-0-0-0-0-0-0-0-0-0-0-----------|
    E|------------------------------------------------------------------------|
    
    e|------------------------------------------------------------------------|
    B|------------------------------------------------------------------------|
    G|------------------------------------------------------------------------|
    D|6-6-6-6-6-6-6-6--9-9-9-9-9-9-9-9--2-2-2-2-4-4-4-4-6-6-6-6-6-6-6-6-------|
    A|4-4-4-4-4-4-4-4--7-7-7-7-7-7-7-7--0-0-0-0-0-0-0-0-0-0-0-0-0-0-0-0-------|
    E|------------------------------------------------------------------------|
    
    e|------------------------------------------------------------------------|
    B|------------------------------------------------------------------------|
    G|------------------------------------------------------------------------|
    D|4-4-4-4-4-4-4-4-4-4-4-4-4-4-4-4-----------------------------------------|
    A|2-2-2-2-2-2-2-2-2-2-2-2-2-2-2-2-----------------------------------------|
    E|------------------------------------------------------------------------|
    
    
    
    Chorus 3
    e|------------------------------------------------------------------------|
    B|------------------------------------------------------------------------|
    G|----4---2-------4---2-------------------4-4-4-4-4-4-4-4-2-2-2-2-2-2-2-2-|
    D|2---4---2---2---4---2---2-2-2-2-2-2-2-2-4-4-4-4-4-4-4-4-2-2-2-2-2-2-2-2-|
    A|2---2---0---2---2---0---2-2-2-2-2-2-2-2-2-2-2-2-2-2-2-2-0-0-0-0-0-0-0-0-|
    E|0-----------0-----------0-0-0-0-0-0-0-0---------------------------------|
    
    e|------------------------------------------------------------------------|
    B|------------------------------------------------------------------------|
    G|9-9-9-9-8-8-8-8-9-9-9-9-9-9-9-9--9-9-9-9-8-8-8-8-9-9-9-9-9-9-9-9--------|
    D|x-x-x-x-x-x-x-x-x-x-x-x-x-x-x-x--x-x-x-x-x-x-x-x-x-x-x-x-x-x-x-x--------|
    A|7-7-7-7-6-6-6-6-7-7-7-7-7-7-7-7--7-7-7-7-6-6-6-6-7-7-7-7-7-7-7-7--------|
    E|------------------------------------------------------------------------|
    
    e|------------------------------------------------------------------------|
    B|------------------------------------------------------------------------|
    G|9-9-9-9-9-9-9-9-13-13-13-13-13-13-13-13--11-11-11-11-11-11-11-11--------|
    D|x-x-x-x-x-x-x-x--x-x-x-x-x-x-x-x-x-x-x---x--x--x--x--x--x--x--x---------|
    A|7-7-7-7-7-7-7-7-11-11-11-11-11-11-11-11--9--9--9--9--9--9--9--9---------|
    E|------------------------------------------------------------------------|
    
    e|------------------------------------------------------------------------|
    B|------------------------------------------------------------------------|
    G|-11-11-11-11-11-11-11-11------------------------------------------------|
    D|-x--x--x--x--x--x--x--x----6-6-6-7-7-7-6-6-6-7-7-7-2-2-4-4--2-----------|
    A|-9--9--9--9--9--9--9--9----0-0-0-0-0-0-0-0-0-0-0-0-0-0-0-0--2-----------|
    E|------------------------------------------------------------0-----------|
    
    
    
    
    | /  slide up
    |   slide down
    | h  hammer-on
    | p  pull-off
    | ~  vibrato
    | +  harmonic
    | x  Mute note
    ============================================================================
     

    Тональность:

    Нет текста!



    Назад
    Рекомендуем посмотреть другие песни исполнителя «Alkaline Trio»:

    • Комментарии Facebook ()
    • Комментарии ВКонтакте



    Добавить в Избранное Браузера
    Сохранить здесь Очистить


    x

    0


    +
    -

    +
    -

    -

    Авторизация





    Зарегистрироваться

    M

    Дата и время

    • 12:03:41
       

    Социальные ссылки


    Наши приложения

    • Muzbank App Play Market
    • Muzbank Amazon App