MUZBANK



A Most Complete Bank Of Music Information

МУЗЫКАЛЬНО-ИНФОРМАЦИОННЫЙ БАНК

Поиск по сайту







    AAlkaline Trio • My Friend Peter (аккорды и текст - chords & lyrics)


    164

    Print

    Видео «My Friend Peter (Alkaline Trio)»

    Видео клипы к песне подбираются автоматически сайтом youtube. Возможны некоторые несоответствия клипов песне.

    ↑ Спрятать рекламу ↑



    Download



     
    
    
    Alkaline Trio - My Friend Peter
    
    Tabbed by: Justin Kraft (jak7775@rit.edu)
    
    Key:
    / = slide up
    ~ = let ring
    x = not played/muted
    > = strum
    mute = mute :)
    
    Order:
    intro, verse 1, bridge, verse 1, chorus, bridge, verse 2, chorus w/ending
    
    Intro
    
    e|--------------
    B|--------------
    G|-9>-----------
    D|-x>--11>--9>--
    A|-7>--11>--9>--
    E|-----9->--7>--
    
    e|---------------
    B|---------------
    G|-8/9>----------
    D|-x/x>--11>--9>-
    A|-6/7>--11>--9>-
    E|-------9->--7>-
    
    e|----------------------------------
    B|----------------------------------
    G|-8/9>--8/9>-----------------------
    D|-x/x>--x/x>--11>--9>--7>--9>--7>--
    A|-6/7>--6/7>--11>--9>--7>--9>--7>--
    E|-------------9->--7>--5>--7>--5>--
    
    
    Verse 1
    
    e|---------------------------------
    B|---------------------------------
    G|-9-9-----------------------------
    D|-x-x-mute--11-11-------9-9-------
    A|-7-7-------11-11-mute--9-9-mute-- 
    E|-----------9--9--------7-7------- x2
    
    
    e|--------------------------
    B|--------------------------
    G|-9>-----------------------
    D|-x>--11>--9>--7>--9>--7>--
    A|-7>--11>--9>--7>--9>--7>--
    E|-----9->--7>--5>--7>--5>--
    
    Verse 2
    
    e|-----------
    B|-----------
    G|-9---------
    D|-x--11--9--
    A|-7--11--9-- 
    E|----9---7--
    
    e|-----------
    B|-----------
    G|-9~~~~~~~~~
    D|-x~~~~~~~~~
    A|-7~~~~~~~~~ 
    E|-----------
    
    e|-------------------------------
    B|-------------------------------
    G|-9-----------------------------
    D|-x--11--9--7>--7-------9-------
    A|-7--11--9--7>--7-mute--9-mute--
    E|----9---7--5>--5-------7-------
    
    
    Bridge
    
    e|-------------
    B|-------------
    G|-9>----------
    D|-x>--11>--9>-
    A|-7>--11>--9>-
    E|-----9->--7>-
    
    e|----------------------
    B|----------------------
    G|-8/9>--8/9>-----------
    D|-x/x>--x/x>--11>--9>--
    A|-6/7>--6/7>--11>--9>--
    E|-------------9->--7>--
    
    Chorus
    
    e|-------------
    B|-------------
    G|-------------
    D|-2>--7>--9>--
    A|-2>--7>--9>--
    E|-0>--5>--7>-- x3
    
    e|-----------
    B|-----------
    G|-----------
    D|-7>--9--7--
    A|-7>--9--7--
    E|-5>--7--5--
    
    then, for the ending (last chorus)..
    
    e|--------------
    B|--------------
    G|--------------
    D|-2~~~-2~------
    A|-2~~~-2~mute--
    E|-0~~~-0~------
     

    Тональность:

    Нет текста!



    Назад
    Рекомендуем посмотреть другие песни исполнителя «Alkaline Trio»:

    • Комментарии Facebook ()
    • Комментарии ВКонтакте



    Добавить в Избранное Браузера
    Сохранить здесь Очистить


    x

    0


    +
    -

    +
    -

    -

    Авторизация





    Зарегистрироваться

    M

    Дата и время

    • 13:45:49
       

    Социальные ссылки


    Наши приложения

    • Muzbank App Play Market
    • Muzbank Amazon App