MUZBANK



A Most Complete Bank Of Music Information

МУЗЫКАЛЬНО-ИНФОРМАЦИОННЫЙ БАНК

Поиск по сайту







    AAlkaline Trio • Private Eye (аккорды и текст - chords & lyrics)


    167

    Print

    Видео «Private Eye (Alkaline Trio)»

    Видео клипы к песне подбираются автоматически сайтом youtube. Возможны некоторые несоответствия клипов песне.

    ↑ Спрятать рекламу ↑



    Download



     
    
    
    Chords Used:
    G   B   D  Eiio  Fiio  Giio
    -------------------------------------------------
    -------------------------------------------------
    -----4---7--11----12----14-----------------------
    -5---4---7--x-----x-----x------------------------
    -5---2---5--9-----10----12-----------------------
    -3-----------------------------------------------
    
    
    Intro/Verse: (when playing verse just p.m.)
    
    ----------------------------------------------|
    ----------------------------------------------|
    -12-12-12-12-12-12-11-11--14-14-14-14--12-12--|
    -x--x--x--x--x--x--x--x---x--x--x--x---x--x---|
    -10-10-10-10-10-10-9--9---12-12-12-12--10-10--|
    ----------------------------------------------|
    
    -----------------------------|
    -----------------------------|
    -4-4-4-4-4-4-4-4----6-6-6-6--|
    -4-4-4-4-4-4-4-4----6-6-6-6--|
    -2-2-2-2-2-2-2-2----4-4-4-4--|
    -----------------------------|
    
    Chorus
    ----------------------------------------------|
    ----------4--------7--------------------------|
    ----------4--------7--------------------------| 4x
    -5--------2--------5--------------------------|
    -5--------------------------------------------|
    -3--------------------------------------------|
    
    
    Songflow:
    Intro 4x
    Verse 4x
    Intro 2x
    Verse 4x
    Chorus
    Verse 4x
    Chorus
    Intro 4x
    Chorus
    End on G
    
    tabbed by: the guitar player from twenty pence refund go to 20prefund.5u.com
     

    Тональность:

    Нет текста!



    Назад
    Рекомендуем посмотреть другие песни исполнителя «Alkaline Trio»:

    • Комментарии Facebook ()
    • Комментарии ВКонтакте



    Добавить в Избранное Браузера
    Сохранить здесь Очистить


    x

    0


    +
    -

    +
    -

    -

    Авторизация





    Зарегистрироваться

    M

    Дата и время

    • 01:22:09
       

    Социальные ссылки


    Наши приложения

    • Muzbank App Play Market
    • Muzbank Amazon App