MUZBANK



A Most Complete Bank Of Music Information

МУЗЫКАЛЬНО-ИНФОРМАЦИОННЫЙ БАНК

Поиск по сайту







    AAlkaline Trio • Stupid Kid (аккорды и текст - chords & lyrics)


    178

    Print

    Видео «Stupid Kid (Alkaline Trio)»

    Видео клипы к песне подбираются автоматически сайтом youtube. Возможны некоторые несоответствия клипов песне.

    ↑ Спрятать рекламу ↑



    Download



     
    
    
    -------------------------------------------------------------------------------
    Stupid Kid – Alkaline Trio
    -------------------------------------------------------------------------------
    
    The rhythm isn’t showed very well but if you listen to the song you will be
    able to figure it out it’s very easy and Alkaline Trio rule!
    
     INTRO  
    e|-X-X---------------------------------|
    B|-X-X---------------------------------|
    G|-X-X-444--99-88-66-------99-88-66----|
    D|-X-X-444--xx-xx-xx--666--xx-xx-xx----|
    A|-X-X-222--77-66-44--666--77-66-44----|
    E|-X-X----------------444--------------|
    
    VERSE
    e|-------------------------|
    B|-------------------------|
    G|-4444--------------------|
    D|-4444--4444--22222-------|
    A|-2222--4444--22222-------|
    E|-------2222--00000-------|
    
    CHORUS
    e|-------------------------------------|
    B|-------------------------------------|
    G|-444444444---------------------------|
    D|-444444444--6666666--444444444-------|
    A|-222222222--6666666--444444444-------|
    E|------------4444444--222222222-------|
    
    POST CHORUS
    e|---------------|
    B|---------------|
    G|--------4------|
    D|-4---2--4------|
    A|-4---2--2------|
    E|-2---0---------|
    
    INTERLUDE
    e|------------------------------------------------------------------|
    B|------------------------------------------------------------------|
    G|-4444444444--33333333-4444444444--999999--88888888--66666666------|
    D|-xxxxxxxxxx--xxxxxxxx-xxxxxxxxxx--xxxxxx--xxxxxxxx--xxxxxxxx------|
    A|-2222222222--11111111-2222222222--777777--66666666--44444444------|
    E|------------------------------------------------------------------|
    
    
    Intro x2
    VERSE x4
    INTRO x2
    VERSE x4
    CHORUS x3
    POST CHORUS 
    INTRO x2
    VERSE  x4
    CHORUS x3
    POST CHORUS
    INTRO x2
    INTERLUDE
    CHORUS x3
    END ON POST CHORUS!
    
    ===============================================================================
     

    Тональность:

    Нет текста!



    Назад
    Рекомендуем посмотреть другие песни исполнителя «Alkaline Trio»:

    • Комментарии Facebook ()
    • Комментарии ВКонтакте



    Добавить в Избранное Браузера
    Сохранить здесь Очистить


    x

    0


    +
    -

    +
    -

    -

    Авторизация





    Зарегистрироваться

    M

    Дата и время

    • 13:07:20
       

    Социальные ссылки


    Наши приложения

    • Muzbank App Play Market
    • Muzbank Amazon App