MUZBANK



A Most Complete Bank Of Music Information

МУЗЫКАЛЬНО-ИНФОРМАЦИОННЫЙ БАНК

Поиск по сайту







    AAlkaline Trio • Weve Had Enough (аккорды и текст - chords & lyrics)


    174

    Print

    Видео «Weve Had Enough (Alkaline Trio)»

    Видео клипы к песне подбираются автоматически сайтом youtube. Возможны некоторые несоответствия клипов песне.

    ↑ Спрятать рекламу ↑



    Download



     
    
    
    -------------------------------------------------------------------------------
                         We’ve Had Enough – Alkaline Trio
    -------------------------------------------------------------------------------
     
    Right I’m slowing working my way through this album but done a few tonight
    so I’ll try to get them up asap, but this is there new single I believe a
    great track of the album there all amazing and so are the trio, so please
    enjoy and rate it it really accurate, I’ve included everything but the
    timings not shown but not hard once ya get the hang of playing it!!!
    
    Intro
    e|----------------------------------------------------------------|
    B|----------------------------------------------------------------|
    G|--------------99999--------------66666--------------44444-------|
    D|--------------xxxxx--------------xxxxx--------------xxxxx-------|
    A|-442244224422-77777-442244224422-44444-442244224422-22222-------|
    E|-220022002200-------220022002200-------220022002200-------------|
    
    Intro cont……
    e|------------------------|
    B|------------------------|
    G|------------------------|
    D|------------------------|
    A|-4466776699776622-------|
    E|-2244554477554400-------|
    
    Verse
    e|--------------------------------------------------|
    B|--------------------------------------------------|
    G|--------------------------------------------------|
    D|-44-44-44-44-22--44-44-44-44-22--77-77-77-77-22---|
    A|-44-44-44-44-22--44-44-44-44-22--77-77-77-77-22---|
    E|-22-22-22-22-00--22-22-22-22-00--55-55-55-55-00---|
    
    Verse cont……
    e|-----------------------------|
    B|-----------------------------|
    G|-44-44-44-44--7777-6666------|
    D|-44-44-44-44--xxxx-xxxx------|
    A|-22-22-22-22--5555-4444------|
    E|-----------------------------|
    
    Chorus
    e|----------------------------------|
    B|----------------------------------|
    G|--------------------7777777-------|
    D|-7777777777-4444444-7777777-------|
    A|-7777777777-4444444-5555555-------|
    E|-5555555555-2222222---------------|
    
    Bridge 1
    e|--------------------------------------|
    B|--------------------------------------|
    G|--------------------------------------|
    D|-442244224422-4(bend upwards)-4-2-----|
    A|--------------------------------------|
    E|--------------------------------------|
    
    Bridge 2
    e|-----------------------------------------|
    B|-----------------------------------------|
    G|-----7-------9-------7---9999999999------|
    D|-7---7---7---9---7---7---9999999999------|
    A|-7---5---7---7---7---5---7777777777------|
    E|-5-------5-------5-----------------------|
    
    Bridge 3
    e|--------------------------------------------------|
    B|--------------------------------------------------|
    G|-141414141414141414141414--9999999-6666-7777------|
    D|-xxxxxxxxxxxxxxxxxxxxxxxx--xxxxxxx-xxxx-xxxx------|
    A|-121212121212121212121212--7777777-4444-5555------|
    E|--------------------------------------------------|
    
    Intro
    Verse x2
    Intro (but only play the second half)
    Verse x2
    Chorus x2
    Intro (but play bridge one over it)
    Bass verse
    Chorus x4
    Bridge 2 x2
    Bridge 3 x4
    Last part of intro to finish
    
    Right that’s it, I think I’ve done a pretty good job with this one
    so enjoy it, Matt Skiba is a legend!!
    
    E-Mail – funkeymonkey10@hotmail.com
    ===============================================================================
     

    Тональность:

    Нет текста!



    Назад
    Рекомендуем посмотреть другие песни исполнителя «Alkaline Trio»:

    • Комментарии Facebook ()
    • Комментарии ВКонтакте



    Добавить в Избранное Браузера
    Сохранить здесь Очистить


    x

    0


    +
    -

    +
    -

    -

    Авторизация





    Зарегистрироваться

    M

    Дата и время

    • 16:56:30
       

    Социальные ссылки


    Наши приложения

    • Muzbank App Play Market
    • Muzbank Amazon App