MUZBANK



A Most Complete Bank Of Music Information

МУЗЫКАЛЬНО-ИНФОРМАЦИОННЫЙ БАНК

Поиск по сайту







    AAll-american Rejects • Swing Swing (аккорды и текст - chords & lyrics)


    188

    Print

    Видео «Swing Swing (All-american Rejects)»

    Видео клипы к песне подбираются автоматически сайтом youtube. Возможны некоторые несоответствия клипов песне.

    ↑ Спрятать рекламу ↑



    Download



     Standard Tuning: ..(Note ..song comes in on 14-15 seconds)
    
    E  :----------------|----------------|----------------|
    B  :----------------|----------------|----------------|
    G  :----------7-7---|7-------------5-|5---5-----------|
    D  :5-5---5---7-7---|7-------------5-|5---5-----------|
    A  :5-5---5---5-5---|5---2-2---2---3-|3---3-----------| x2
    E  :3-3---3---------|----0-0---0-----|----------------|
    
    
    E  :-----------------------------|---------------------------|
    B  :-----------------------------|---------------------------|
    G  :----------------7-7-7-7-7-7-7|7-----------------5-5-5-5-5|
    D  :5-5-5-5-5-5-5-5-7-7-7-7-7-7-7|7-----------------5-5-5-5-5|
    A  :5-5-5-5-5-5-5-5-5-5-5-5-5-5-5|5-2-2-2-2-2-2-2-2-3-3-3-3-3|
    E  :3-3-3-3-3-3-3-3--------------|--0-0-0-0-0-0-0-0----------|
    
    E  :------------------|
    B  :------------------|
    G  :5-5-5-------------|
    D  :5-5-5-------------|
    A  :3-3-3-------------|x2
    
    
    E  :3-3---3---------|
    B  :3-3---3---------|
    G  :----------------|
    D  :----------------|
    A  :2-2---2---------| x8
    E  :3-3---3---------|
    
    
    E  :------------------------|-----------------------|
    B  :------------------------|-----------------------|
    G  :------------------------|-----------------------|
    D  :------------5/75---4-4-|--5--------------5/95-|
    A  :-----2-3/5--------------|----------2-3/5--------|
    E  :3/5---------------------|-----3/5---------------|
    
    E  :------------------|
    B  :------------------|
    G  :------------------|
    D  :---4-4-4--5-------|
    A  :------------------|
    E  :------------------|
    
     
    E  :-----------------|
    B  :-----------------|
    G  :-----------------|
    D  :-----------------|
    A  :2---3-2-0---2-0--|
    E  :--3-------------3|
    
    
    E  :-----------------------------|---------------------------|
    B  :-----------------------------|---------------------------|
    G  :----------------7-7-7-7-7-7-7|7-----------------5-5-5-5-5|
    D  :5-5-5-5-5-5-5-5-7-7-7-7-7-7-7|7-----------------5-5-5-5-5|
    A  :5-5-5-5-5-5-5-5-5-5-5-5-5-5-5|5-2-2-2-2-2-2-2-2-3-3-3-3-3|x2
    E  :3-3-3-3-3-3-3-3--------------|--0-0-0-0-0-0-0-0----------|
    
    
    E  :3-3---3---------|
    B  :3-3---3---------|
    G  :----------------|
    D  :----------------|
    A  :2-2---2---------| x8
    E  :3-3---3---------|
    
    
    E  :------------------------|-----------------------|
    B  :------------------------|-----------------------|
    G  :------------------------|-----------------------|
    D  :------------5/75---4-4-|--5--------------5/95-|
    A  :-----2-3/5--------------|----------2-3/5--------|
    E  :3/5---------------------|-----3/5---------------|
    
    E  :------------------|
    B  :------------------|
    G  :------------------|
    D  :---4-4-4--5-------|
    A  :------------------|
    E  :------------------|
    
    
    E  :-----------------|
    B  :-----------------|
    G  :-----------------|
    D  :-----------------|
    A  :2---3-2-0---2-0--|
    E  :--3-------------3|
    
    
    E  :-----------------------------|---------------------------|
    B  :-----------------------------|---------------------------|
    G  :----------------7-7-7-7-7-7-7|7-----------------5-5-5-5-5|
    D  :5-5-5-5-5-5-5-5-7-7-7-7-7-7-7|7-----------------5-5-5-5-5|
    A  :5-5-5-5-5-5-5-5-5-5-5-5-5-5-5|5-2-2-2-2-2-2-2-2-3-3-3-3-3|x2
    E  :3-3-3-3-3-3-3-3--------------|--0-0-0-0-0-0-0-0----------|
    _______________________________________________________________________ 
    SOLO! w00t:
    E  :3-/10---8-7--8---8-/15--|--8-/14-12------------15--8-/7--|
    B  :----------------8--------|8----------12-h15-p12-----------|
    G  :-------------------------|--------------------------------|
    D  :-------------------------|--------------------------------|
    A  :-------------------------|--------------------------------|
    E  :-------------------------|--------------------------------|
    
    E  :8---------------------|
    B  :--8---8--7-8-10-------|
    G  :----------------------|
    D  :----------------------|
    A  :----------------------|
    E  :----------------------|
    ______________________________  DG_______________ DG________________________
    E  :------------3---3-|------3-3-2-2----------|3-3-2-2------------------|
    B  :------------3---3-|--------------3-1-3----|--------3-1-3------------|
    G  :------7-7---------|--------------------7-7|--------------7-7-7-7-7-7|
    D  :------7-7-------2-|--------------------7-7|--------------7-7-7-7-7-7|
    A  :2-2---5-5---2---3-|--2-2---------------5-5|--------------5-5-5-5-5-5|
    E  :0-0---------3-----|--0-0------------------|-------------------------|
    
    E  :-------------------------|
    B  :-------------------------|
    G  :7-7-7-7-7-7-7-7-7-7------|
    D  :7-7-7-7-7-7-7-7-7-7------|
    A  :5-5-5-5-5-5-5-5-5-5------|
    E  :-------------------------|
    _______________________________________________________________________ 
    E  :-----------------------------|---------------------------|
    B  :-----------------------------|---------------------------|
    G  :----------------7-7-7-7-7-7-7|7-----------------5-5-5-5-5|(Solo overlaps here)
    D  :5-5-5-5-5-5-5-5-7-7-7-7-7-7-7|7-----------------5-5-5-5-5|
    A  :5-5-5-5-5-5-5-5-5-5-5-5-5-5-5|5-2-2-2-2-2-2-2-2-3-3-3-3-3| 

    Тональность:

    Нет текста!



    Назад
    Рекомендуем посмотреть другие песни исполнителя «All-american Rejects»:

    • Комментарии Facebook ()
    • Комментарии ВКонтакте



    Добавить в Избранное Браузера
    Сохранить здесь Очистить


    x

    0


    +
    -

    +
    -

    -

    Авторизация





    Зарегистрироваться

    M

    Дата и время

    • 20:31:16
       

    Социальные ссылки


    Наши приложения

    • Muzbank App Play Market
    • Muzbank Amazon App