MUZBANK



A Most Complete Bank Of Music Information

МУЗЫКАЛЬНО-ИНФОРМАЦИОННЫЙ БАНК

Поиск по сайту







    AAll-american Rejects • The Cigarette Song (аккорды и текст - chords & lyrics)


    174

    Print

    Видео «The Cigarette Song (All-american Rejects)»

    Видео клипы к песне подбираются автоматически сайтом youtube. Возможны некоторые несоответствия клипов песне.

    ↑ Спрятать рекламу ↑



    Download



     
    
    
    The All american rejects - the cigarette song
    Tabbed by Darlene J.
    Email dj8008@hotmail.com
    
    Intro
    E-0--2-5----------------5-4-2-----|
    B-0--2-5----------------5-4-2-----|
    G-1--2-6----4x----------6-4-2-----|
    D-2--4-7--then it goes--7-6-4-----|
    A-2--4-7----------------7-6-4-----|
    E-0--2-5----------------5-4-2-----|
    
    Palm Mute
    E----------0--0-------------------|
    B----------0----0-----------------|
    G----4--6--2------5----1----------|
    D-2--4--6--2----------------------|
    A-2--2--4--0----------------------|
    E-0-------------------------------|
    
    E--------0--4-0-----------------|
    B--------0--6-0-----------------|
    G---4-6--2--6-2-----------------|
    D-2-4-6--2--6-2-----------------|
    A-2-2-4--0--4-0-----------------|
    E-0------0----0-----------------|
    
    E-0---7---------4-5-0--------------5-------|
    B-0---7---------4-5-0--------------5-------|
    G-1---8---------4-6-1--------------6-------|
    D-2---9--2x-----6-7-2--4x----------7-------|
    A-2---9---------6-7-2--end chord---7-------|
    E-0---7---------4-5-0-----on-------5-------|
    
    E-0--7------|
    B-0--7------|
    G-1--8------|
    D-2--9------|
    A-2--9------|
    E-0--7------|
    
    E---------------------------------------------------------|
    B---------------------------------------------------------|
    G-------------------------------------------1-------------|
    D-----2---2-1-2--------2---2-1-2-------2------2---2-------|
    A---2---2-------2----2---2-------2----2--2------2---------|
    E-0----------------5-----------------0--------------------|
    
    E----------------------------|
    B----------------------------|
    G----------2-1---------------|
    D-----2---------4--6---------|
    A---2---2--------------------|
    E-0--------------------------|
    
    end it on
    E-----------------0-----------|
    B-----------------0-----------|
    G--------1--------1-----------|
    D----2-----2--2---2-----------|
    A---2--2-----2----2-----------|
    E-0---------------0-----------|
     

    Тональность:

    Нет текста!



    Назад
    Рекомендуем посмотреть другие песни исполнителя «All-american Rejects»:

    • Комментарии Facebook ()
    • Комментарии ВКонтакте



    Добавить в Избранное Браузера
    Сохранить здесь Очистить


    x

    0


    +
    -

    +
    -

    -

    Авторизация





    Зарегистрироваться

    M

    Дата и время

    • 05:28:42
       

    Социальные ссылки


    Наши приложения

    • Muzbank App Play Market
    • Muzbank Amazon App