MUZBANK



A Most Complete Bank Of Music Information

МУЗЫКАЛЬНО-ИНФОРМАЦИОННЫЙ БАНК

Поиск по сайту







    AAll • Button It (аккорды и текст - chords & lyrics)


    265

    Print

    Видео «Button It (All)»

    Видео клипы к песне подбираются автоматически сайтом youtube. Возможны некоторые несоответствия клипов песне.

    ↑ Спрятать рекламу ↑



    Download


     
    
    
    Song:    Button It
    Artist:  ALL
    Source:  Pummel
    Bassist: Bassmaster General Karl Alvarez
    
    Transcription by Perry J. Paus
    
    Comments/corrections to Perry J. Paus
     or 
    Last Updated 06-03-99
    
    
    Notes: Tune down to Eb Ab Db Gb. Play 2X
    --------) Play intro.
    1st time) Play verse + chorus 1.
    2nd time) Play verse + chorus 2.
    --------) Play intro.
    --------) Play outro.
    Enjoy my good friends, enjoy!
    
    
    Intro
            w   e e e e e e q      w
    Gb |----r-|-----------------|------|
    Db |-4:-e-|-----------------|--11--|
    Ab |-4:-s-|-7---7---9---11--|--9---|
    Eb |----t-|---7---7---9-----|------|
                                                                       
    
    Verse
              e e e e e e e e   e e e e e e e e 
    Gb ||---------------------|-----------------|
    Db ||*-4:-----------------|-----------------|
    Ab ||*-4:-2-2-2-2-2-2-2-0-|-2-2-2-2-2-2-2-2-|
    Eb ||---------------------|-----------------|
                                                                       
    
         e e e e e e e e   e e e e e e e e  X2
    Gb |---------------1-|-4-1--------------||
    Db |---------2---2---|-----4-1---2-1---*||
    Ab |-4-4-4-4---2-----|---------2-----4-*||
    Eb |-----------------|------------------||
    
                                                                       
    Chorus 1
            q  q  q  q     q  q  q  q     q  q  q  q     q  q  q  q 
    Gb |----------------|--------------|--------------|--------------|
    Db |-4:-------------|--------------|--------------|--------------|
    Ab |-4:----1--4--1--|--2--1--------|--------2-----|--1--4-----1--|
    Eb |----2-----------|--------4--2--|--0--4-----4--|--------2-----|
                                                                       
    
            e e e e e e e e   e e e e e e e e   e e e e e e e e   e e e e q  q 
    Gb |--------------------|-----------------|-----------------|---------------|
    Db |-4:-----------------|-----------------|-2---2---2---2---|-4---4---6--8--|
    Ab |-4:-2-2-2-2-1-1-1-1-|-----------------|---2---2---2---2-|---4---4-------|
    Eb |--------------------|-4-4-4-4-2-2-2-2-|-----------------|---------------|
                                                                       
    
    Chorus 2
            q  q  q  q     q  q  q  q     q  q  q  q     q  q  q  q 
    Gb |----------------|--------------|-----1--------|--------------|
    Db |-4:-------------|-----1--4--1--|--2-----------|--------4-----|
    Ab |-4:----1--4--1--|--2-----------|--------4--2--|--1--4-----4--|
    Eb |----2-----------|--------------|--------------|--------------|
                                                                       
    
            e e e e e e e e   e e e e e e e e   e e e e e e e e   e e e e q  q 
    Gb |--------------------|-----------------|-----------------|---------------|
    Db |-4:-----------------|-----------------|-2---2---2---2---|-4---4---6--8--|
    Ab |-4:-2-2-2-2-1-1-1-1-|-----------------|---2---2---2---2-|---4---4-------|
    Eb |--------------------|-4-4-4-4-2-2-2-2-|-----------------|---------------|
                                                                       
    
    Outro
             w--->
    Gb |-----p--|
    Db |-4:--9--|
    Ab |-4:--p--|
    Eb |-----7--|
     

    Тональность:

    Нет текста!



    Назад
    Рекомендуем посмотреть другие песни исполнителя «All»:

    • Комментарии Facebook ()
    • Комментарии ВКонтакте



    Добавить в Избранное Браузера
    Сохранить здесь Очистить


    x

    0


    +
    -

    +
    -

    -

    Авторизация





    Зарегистрироваться

    M

    Дата и время

    • 06:58:44
       

    Социальные ссылки


    Наши приложения

    • Muzbank App Play Market
    • Muzbank Amazon App