MUZBANK



A MOST COMPLETE BANK OF MUSIC INFORMATION

МУЗЫКАЛЬНО-ИНФОРМАЦИОННЫЙ БАНК







    AAll Star United • Smash Hit (аккорды и текст - chords & lyrics)


    219

    Print

    Видео «Smash Hit (All Star United)»

    Видео клипы к песне подбираются автоматически сайтом youtube. Возможны некоторые несоответствия клипов песне.

    ↑ Спрятать рекламу ↑






     
    
    
    Tabbed by blink1skate2@hotmail.com
    my second tab  (my first was Bon Jovi-One Wild Night)
    
    ALL STAR UNITED - SMASH HIT
    
    guitar intro
    
    INTRO
    G|-----------|
    D|-----------|
    A|--7-7-7-6--|
    E|-----------|
    
    CHORUS
    G|---------------------------------------------|
    D|---------------------------------------------|
    A|------4-4------5-5-5-4------4-4-----7-7-7-6--|
    E|--5-5-----2-2-----------5-5-----2-2----------|
    
    VERSE
    G|-----------|
    D|-----------|
    A|--------5--|
    E|--5-4-2----|
    
    BRIDGE
    G|----------------|
    D|----------------|
    A|------7------5--|
    E|--5-5----5-5----|
     

    Тональность:

    Это должно быть в ТОП-листе! - Топ-лист композиций



    Назад
    Рекомендуем посмотреть другие песни исполнителя «All Star United»:

    • Комменты Fb ()
    • Комменты ВК



    Добавить в Избранное Браузера
    Сохранить здесь Очистить


    x

    0


    +
    -

    +
    -

    -

    Авторизация





    Зарегистрироваться

    M

    Дата и время

    • 08:48:54
       

    Социальные ссылки


    Наши приложения

    • Muzbank App Play Market
    • Muzbank Amazon App