MUZBANK



A Most Complete Bank Of Music Information

МУЗЫКАЛЬНО-ИНФОРМАЦИОННЫЙ БАНК

Поиск по сайту







    AAllister • Radio Player (аккорды и текст - chords & lyrics)


    225

    Print

    Видео «Radio Player (Allister)»

    Видео клипы к песне подбираются автоматически сайтом youtube. Возможны некоторые несоответствия клипов песне.

    ↑ Спрятать рекламу ↑



    Download



     
    
    
    -------------------------------------------------------------------------------
    			     Radio Player - Allister
    -------------------------------------------------------------------------------
    
    Tabbed by: Brian 
    Email: guitar_freak7@msn.com
    
    Tuning:Standard
    
    Intro                                      
            
    e|-------------------|
    B|-------------------|
    G|-9p8h9-------------|
    D|-------------------|
    A|-------------------|
    E|-------------------|
         
               
    Guitar 1         strum these chrods
    e|----------------------------|  X2
    B|----------------------------|
    G|--4-------------------------|
    D|--4-----4-----2----4--------|
    A|--2-----4-----2----4--------|
    E|--------2-----0----2--------|
    Guitar 2
    e|---------------------------------------| X8
    B|---------------------------------------|
    G|-9-9-9-8-8-8-10-10-10-8-8-8-9-9-9-8-8-8|
    D|---------------------------------------|
    A|---------------------------------------|
    E|---------------------------------------|
    
    (if u listen closely, there is a thrid guitar playing this at 0:16)
    strum these octaves
    e|---------------| X4
    B|---------------| 
    G|-9-8-6-4-------|
    D|---------------|
    A|-7-6-4-2-------|
    E|---------------|
    
    
    Verse
    (palm mute the chords before playing it accented)
    
    Guitar 1
    e|------------------| X4
    B|------------------|
    G|--4--4------------|
    D|--4--4---2--4-----|
    A|--2--2---2--4-----|
    E|---------0--2-----|
    
    Pre-Chorus
    
    Guitar 1   (strum these chords)
    e|------------|X3
    B|------------| 
    G|------4-----|
    D|--2---4-----|           
    A|--2---2-----|
    E|--0---------|
    
    (after that you strum)
    Guitar 1
    e|-----------|
    B|-----------|
    G|-----------|
    D|-4---------|
    A|-4---------|
    E|-2---------|
    
    Guitar 2   (gutar 2 strums the F# power chord then moves to an octave chord)
    e|-------------|
    B|-------------|
    G|-------11----|
    D|--4----------|
    A|--4----9-----|
    E|--2----------|
    
    
    Chorus 
    Guitar 1 and 2  (strum these chords)
    e|-----------------|
    B|-----------------| X4
    G|-4---------------|
    D|-4---6---2---4---|
    A|-2---6---2---4---|
    E|-----4---0---2---|
    
    (the fourth time guitar 2 plays these to octaves over and over)
    
    e|---------|
    B|-12-11---|
    G|---------|
    D|-7--6----|
    A|---------|
    E|---------|
    
    
    Intro (Cut in half and without 3rd guitar)
    
    
    Verse
    
    
    (on the fourth time of the verse the 2nd guitar plays this riff)
    
    
    
    
    e|-------------------------|
    B|--/9-7-------------------|
    G|--------9-8--------------|
    D|------------9-11-9-11----|
    A|-------------------------|
    E|-------------------------|
    
    
    Pre-Chorus
    
    
    Chorus (X8)
    
    
    Pre-Bridge
    
    Guitar 1 and 2
    (strum these power chords)
    e|-----------------------| X2
    B|-----------------------|
    G|--------------4--------|
    D|--6---4---2---4--4-----|
    A|--6---4---2---2--4-----|
    E|--4---2---0------2-----|
    
    (palm mute the e power chord and the F# power chord)
    
    e|-----------------------| X2
    B|-----------------------|
    G|-----------------------|
    D|--6---4---2--4---------|
    A|--6---4---2--4---------|
    E|--4---2---0--2---------|
    
    Bridge
    Gutiar 1 (Play throughout the bridge)
    e|------------------------------------------------------------------|
    B|------------------------------------------------------------------|
    G|-----8-------8-------8-------8-------9-------9--------9-------9---|
    D|---9---9---9---9---9---9---9---9---9---9---9---9----9---9---9---9-|
    A|-----------------6-------6-------7-------7--------7-------7-------|
    E|-7-------7--------------------------------------------------------|
    
    Guitar 2
    
    (listen to the song to see when u strum the b power chord)
    e|------|
    B|------|
    G|--4---|
    D|--4---|
    A|--2---|
    E|------|
    
    Chorus
    
    
    Outro
    
    
    e|---------------------------------------------------------------------------|
    B|---------------------------------------------------------------------------|
    G|--4--4----------------------4--4-------------------------------------------|
    D|--4--4---6--6--2--2---4--4--4--4-------------------------------------------|
    A|--2--2---6--6--2--2---4--4--2--2-------------------------------------------|
    E|---------4--4--0--0---2--2-------------------------------------------------|
    
    
    Thats it. This is a great song and all of their songs are great. Enjoy.
     

    Тональность:

    Нет текста!



    Назад
    Рекомендуем посмотреть другие песни исполнителя «Allister»:

    • Комментарии Facebook ()
    • Комментарии ВКонтакте



    Добавить в Избранное Браузера
    Сохранить здесь Очистить


    x

    0


    +
    -

    +
    -

    -

    Авторизация





    Зарегистрироваться

    M

    Дата и время

    • 05:32:02
       

    Социальные ссылки


    Наши приложения

    • Muzbank App Play Market
    • Muzbank Amazon App