MUZBANK



A Most Complete Bank Of Music Information

МУЗЫКАЛЬНО-ИНФОРМАЦИОННЫЙ БАНК

Поиск по сайту







    AAmen • Justified (аккорды и текст - chords & lyrics)


    253

    Print

    Видео «Justified (Amen)»

    Видео клипы к песне подбираются автоматически сайтом youtube. Возможны некоторые несоответствия клипов песне.

    ↑ Спрятать рекламу ↑



    Download



     
    
    
    Amen – Justified
    
    Intro
    E|--------------------------------------------------
    B|--14-14-14-14-14-14-14-14-14-14-14-14-14-14-14-14-
    G|--x--x--x--x--x--x--x--x--x--x--x--x--x--x--x--x--
    D|--11-11-11-11-11-11-11-11-11-11-11-11-11-11-11-11-
    A|--------------------------------------------------
    D|--------------------------------------------------
    
    Gtr 1
    E|-------------------------------------------------------
    B|--15--17-17-17-17-17-17-17-17-17-17-17-17-17-17-17-17--
    G|--x---x--x--x--x--x--x--x--x--x--x--x--x--x--x--x--x---
    D|--12--14-14-14-14-14-14-14-14-14-14-14-14-14-14-14-14--
    A|-------------------------------------------------------
    D|-------------------------------------------------------
     Gtr 2
    E|-------------------------------------------
    B|-----------17b-17b-17b-17b-17b-17b-17b-17b-
    G|-----------16b-16b-16b-16b-16b-16b-16b-16b-
    D|-------------------------------------------
    A|-------------------------------------------
    D|-------------------------------------------
    
    VERSE 
    E|------------------------------------------------------------------
    B|------------------------------------------------------------------
    G|------------------------------------------------------------------
    D|------4---------------4---------------4---------------4--5-5--7-7-
    A|---------------------------------------------------------3-3--5-5-
    D|--2-0---0h2--0-0--2-0---0h2--0-0--2-0---0h2--0-0--2-0-------------
    
    E|----------------------------------
    B|----------------------------------
    G|----------------------------------
    D|------4---------------4-----------
    A|----------------------------------
    D|--2-0---0h2--0-0--2-0---0h2--0-0--
    
    E|------------------------------------------------------------------
    B|------------------------------------------------------------------
    G|------------------------------------------------------------------
    D|------4---------------4---------------4---------------4--5-5--7-7-
    A|---------------------------------------------------------3-3--5-5-
    D|--2-0---0h2--0-0--2-0---0h2--0-0--2-0---0h2--0-0--2-0------------- x2
    
    Bridge
    E|------------------------------------------------
    B|------------------------------------------------
    G|------------------------------------------------
    D|--2---3---0---7-----2---3---0---7-----2-3-2-3-5-
    A|--2---3---0---7-----2---3---0---7-----2-3-2-3-5-
    D|--2---3---0---7-----2---3---0---7-----2-3-2-3-5-
    
    Chorus
    Gtr 1
    E|--------------------------------------------------
    B|--------------------------------------------------
    G|--------------------------5-5-5-5-5-5-5-5-5-5-5-5-
    D|--2-2-2-2-2-2-0-0-0-0-0-0-5-5-5-5-5-5-5-5-5-5-5-5-
    A|--2-2-2-2-2-2-0-0-0-0-0-0-3-3-3-3-3-3-3-3-3-3-3-3-
    D|--2-2-2-2-2-2-0-0-0-0-0-0-------------------------
    
    E|-------------------------------------------------
    B|-------------------------------------------------
    G|--------------------------5-5-5-5-5-5------------
    D|--2-2-2-2-2-2-0-0-0-0-0-0-5-5-5-5-5-5--2-3-2-3-5-
    A|--2-2-2-2-2-2-0-0-0-0-0-0-3-3-3-3-3-3--2-3-2-3-5-
    D|--2-2-2-2-2-2-0-0-0-0-0-0--------------2-3-2-3-5-
    
    Gtr 2
    E|---------------  
    B|---------------  
    G|--2-3-2-0-2-0-- 
    D|---------------  
    A|---------------  
    D|---------------x7  
    
    Verse
    E|----------------------------------
    B|----------------------------------
    G|----------------------------------
    D|------4---------------4-----------
    A|----------------------------------
    D|--2-0---0h2--0-0--2-0---0h2--0-0--
    
    E|------------------------------------------------------------------
    B|------------------------------------------------------------------
    G|------------------------------------------------------------------
    D|------4---------------4---------------4---------------4--5-5--7-7-
    A|---------------------------------------------------------3-3--5-5-
    D|--2-0---0h2--0-0--2-0---0h2--0-0--2-0---0h2--0-0--2-0-------------x2
    
    Bridge (same as before)
    
    Chorus
    Gtr 1
    E|--------------------------------------------------
    B|--------------------------------------------------
    G|--------------------------5-5-5-5-5-5-5-5-5-5-5-5-
    D|--2-2-2-2-2-2-0-0-0-0-0-0-5-5-5-5-5-5-5-5-5-5-5-5-
    A|--2-2-2-2-2-2-0-0-0-0-0-0-3-3-3-3-3-3-3-3-3-3-3-3-
    D|--2-2-2-2-2-2-0-0-0-0-0-0-------------------------x3
    
    E|--------------------------------------
    B|--------------------------------------
    G|--------------------------5-5-5-5-5-5-
    D|--2-2-2-2-2-2-0-0-0-0-0-0-5-5-5-5-5-5-
    A|--2-2-2-2-2-2-0-0-0-0-0-0-3-3-3-3-3-3-
    D|--2-2-2-2-2-2-0-0-0-0-0-0-------------
    
    Gtr 2
    E|---------------  
    B|---------------  
    G|--2-3-2-0-2-0--  
    D|---------------  
    A|---------------  
    D|---------------x8  
    
    E|--17-16-17-15-17-15—17-
    B|--x--x--x--x--x--x--x--
    G|--14-15-14-12-14-12-14-
    D|----------------------- 
    A|-----------------------
    D|-----------------------
    Play each chord six times
    
    Interlude
    Gtr 1
    E|-------------
    B|-------------
    G|-------------
    D|--2-3-2-3-5--
    A|--2-3-2-3-5--
    D|--2-3-2-3-5-- x4
    Gtr 2
    E|-----------------------------------------
    B|-14b-14b-14b-14b-14b-15b-15b-15b-15b-15b-
    G|-13b-13b-13b-13b-13b-14b-14b-14b-14b-14b- 
    D|-----------------------------------------
    A|-----------------------------------------
    D|-----------------------------------------x2
    
    
    
    
    Break
    E|------------------------
    B|------------------------
    G|------------------------
    D|--2-0---------xxxx-2-0--
    A|--2-0---------xxxx-2-0--
    D|--2-0---------xxxx-2-0-- x4
    
    E|------------------------
    B|------------------------
    G|------------------------
    D|------4-------xxxx-2-0--
    A|--------------xxxx-2-0--
    D|--2-0---0h2-0-xxxx-2-0-- x3
    
    E|-------------------
    B|-------------------
    G|-------------------
    D|------4------------
    A|-------------------
    D|--2-0---0h2-0-2p0-- x4
    
    Chorus – Same as second chorus
    Interlude 
    
    Outro
    E|-------------------
    B|-------------------
    G|-------------------
    D|------4------------
    A|-------------------
    D|--2-0---0h2-0-2-0-- x5
    
    E|------------------
    B|------------------
    G|------------------
    D|------4--5-5--7-7-
    A|---------3-3--5-5-
    D|--2-0-------------
    
    Gtr 1
    E|-------------
    B|-------------
    G|-------------
    D|--2-3-2-3-5--
    A|--2-3-2-3-5--
    D|--2-3-2-3-5-- x3
    Gtr 2
    E|-----------------------------------------
    B|-14b-14b-14b-14b-14b-15b-15b-15b-15b-15b-
    G|-13b-13b-13b-13b-13b-14b-14b-14b-14b-14b- 
    D|-----------------------------------------
    A|-----------------------------------------
    D|-----------------------------------------x1 and a half
    
    Gtr 1
    E|---------
    B|---------
    G|---------
    D|--2-3-2--
    A|--2-3-2--
    D|--2-3-2--
    Gtr2
    E|-------------
    B|-15b-15b-15b-
    G|-14b-14b-14b- 
    D|-------------
    A|-------------
    D|-------------
     

    Тональность:

    Нет текста!



    Назад
    Рекомендуем посмотреть другие песни исполнителя «Amen»:

    • Комментарии Facebook ()
    • Комментарии ВКонтакте



    Добавить в Избранное Браузера
    Сохранить здесь Очистить


    x

    0


    +
    -

    +
    -

    -

    Авторизация





    Зарегистрироваться

    M

    Дата и время

    • 11:47:40
       

    Социальные ссылки


    Наши приложения

    • Muzbank App Play Market
    • Muzbank Amazon App